  0
SECTION
  2
HEADER
  9
$ACADVER
  1
AC1015
  9
$HANDSEED
  5
264
  9
$LIMMIN
 10
3.08630299568176
 20
0.0681764259934425
  9
$LIMMAX
 10
3.72754549980164
 20
0.899593353271484
  9
$MEASUREMENT
 70
1
  0
ENDSEC
  0
SECTION
  2
TABLES
  0
TABLE
  2
VPORT
  5
  1
100
AcDbSymbolTable
  0
ENDTAB
  0
TABLE
  2
LTYPE
  5
  2
100
AcDbSymbolTable
  0
LTYPE
  5
  3
100
AcDbSymbolTableRecord
100
AcDbLinetypeTableRecord
  2
BYBLOCK
 70
     0
  0
LTYPE
  5
  4
100
AcDbSymbolTableRecord
100
AcDbLinetypeTableRecord
  2
BYLAYER
 70
     0
  0
LTYPE
  5
20
100
AcDbSymbolTableRecord
100
AcDbLinetypeTableRecord
  2
_SOLID
  3

 70
0
 72
65
 73
2
 40
5
 49
5
 74
0
 49
0
 74
0
  0
LTYPE
  5
21
100
AcDbSymbolTableRecord
100
AcDbLinetypeTableRecord
  2
_DASH
  3

 70
0
 72
65
 73
2
 40
7
 49
5
 74
0
 49
-2
 74
0
  0
LTYPE
  5
22
100
AcDbSymbolTableRecord
100
AcDbLinetypeTableRecord
  2
_DOT
  3

 70
0
 72
65
 73
2
 40
4
 49
2
 74
0
 49
-2
 74
0
  0
LTYPE
  5
23
100
AcDbSymbolTableRecord
100
AcDbLinetypeTableRecord
  2
_DASHDOT
  3

 70
0
 72
65
 73
4
 40
11
 49
5
 74
0
 49
-2
 74
0
 49
2
 74
0
 49
-2
 74
0
  0
LTYPE
  5
24
100
AcDbSymbolTableRecord
100
AcDbLinetypeTableRecord
  2
_DASHDOTDOT
  3

 70
0
 72
65
 73
6
 40
15
 49
5
 74
0
 49
-2
 74
0
 49
2
 74
0
 49
-2
 74
0
 49
2
 74
0
 49
-2
 74
0
  0
LTYPE
  5
25
100
AcDbSymbolTableRecord
100
AcDbLinetypeTableRecord
  2
ISO128-20-02
  3

 70
0
 72
65
 73
2
 40
15
 49
12
 74
0
 49
-3
 74
0
  0
LTYPE
  5
26
100
AcDbSymbolTableRecord
100
AcDbLinetypeTableRecord
  2
ISO128-20-03
  3

 70
0
 72
65
 73
2
 40
30
 49
12
 74
0
 49
-18
 74
0
  0
LTYPE
  5
27
100
AcDbSymbolTableRecord
100
AcDbLinetypeTableRecord
  2
ISO128-20-04
  3

 70
0
 72
65
 73
4
 40
30
 49
24
 74
0
 49
-3
 74
0
 49
0
 74
0
 49
-3
 74
0
  0
LTYPE
  5
28
100
AcDbSymbolTableRecord
100
AcDbLinetypeTableRecord
  2
ISO128-20-05
  3

 70
0
 72
65
 73
6
 40
33
 49
24
 74
0
 49
-3
 74
0
 49
0
 74
0
 49
-3
 74
0
 49
0
 74
0
 49
-3
 74
0
  0
LTYPE
  5
29
100
AcDbSymbolTableRecord
100
AcDbLinetypeTableRecord
  2
ISO128-20-06
  3

 70
0
 72
65
 73
8
 40
36
 49
24
 74
0
 49
-3
 74
0
 49
0
 74
0
 49
-3
 74
0
 49
0
 74
0
 49
-3
 74
0
 49
0
 74
0
 49
-3
 74
0
  0
LTYPE
  5
2A
100
AcDbSymbolTableRecord
100
AcDbLinetypeTableRecord
  2
ISO128-20-07
  3

 70
0
 72
65
 73
2
 40
3
 49
0
 74
0
 49
-3
 74
0
  0
LTYPE
  5
2B
100
AcDbSymbolTableRecord
100
AcDbLinetypeTableRecord
  2
ISO128-20-08
  3

 70
0
 72
65
 73
4
 40
36
 49
24
 74
0
 49
-3
 74
0
 49
6
 74
0
 49
-3
 74
0
  0
LTYPE
  5
2C
100
AcDbSymbolTableRecord
100
AcDbLinetypeTableRecord
  2
ISO128-20-09
  3

 70
0
 72
65
 73
6
 40
45
 49
24
 74
0
 49
-3
 74
0
 49
6
 74
0
 49
-3
 74
0
 49
6
 74
0
 49
-3
 74
0
  0
LTYPE
  5
2D
100
AcDbSymbolTableRecord
100
AcDbLinetypeTableRecord
  2
ISO128-20-10
  3

 70
0
 72
65
 73
4
 40
18
 49
12
 74
0
 49
-3
 74
0
 49
0
 74
0
 49
-3
 74
0
  0
LTYPE
  5
2E
100
AcDbSymbolTableRecord
100
AcDbLinetypeTableRecord
  2
ISO128-20-11
  3

 70
0
 72
65
 73
6
 40
33
 49
12
 74
0
 49
-3
 74
0
 49
12
 74
0
 49
-3
 74
0
 49
0
 74
0
 49
-3
 74
0
  0
LTYPE
  5
2F
100
AcDbSymbolTableRecord
100
AcDbLinetypeTableRecord
  2
ISO128-20-12
  3

 70
0
 72
65
 73
6
 40
21
 49
12
 74
0
 49
-3
 74
0
 49
0
 74
0
 49
-3
 74
0
 49
0
 74
0
 49
-3
 74
0
  0
LTYPE
  5
30
100
AcDbSymbolTableRecord
100
AcDbLinetypeTableRecord
  2
ISO128-20-13
  3

 70
0
 72
65
 73
8
 40
36
 49
12
 74
0
 49
-3
 74
0
 49
12
 74
0
 49
-3
 74
0
 49
0
 74
0
 49
-3
 74
0
 49
0
 74
0
 49
-3
 74
0
  0
LTYPE
  5
31
100
AcDbSymbolTableRecord
100
AcDbLinetypeTableRecord
  2
ISO128-20-14
  3

 70
0
 72
65
 73
8
 40
24
 49
12
 74
0
 49
-3
 74
0
 49
0
 74
0
 49
-3
 74
0
 49
0
 74
0
 49
-3
 74
0
 49
0
 74
0
 49
-3
 74
0
  0
LTYPE
  5
32
100
AcDbSymbolTableRecord
100
AcDbLinetypeTableRecord
  2
ISO128-20-15
  3

 70
0
 72
65
 73
10
 40
39
 49
12
 74
0
 49
-3
 74
0
 49
12
 74
0
 49
-3
 74
0
 49
0
 74
0
 49
-3
 74
0
 49
0
 74
0
 49
-3
 74
0
 49
0
 74
0
 49
-3
 74
0
  0
ENDTAB
  0
TABLE
  2
LAYER
  5
 1A
330
  0
100
AcDbSymbolTable
  0
LAYER
  5
260
330
 1A
100
AcDbSymbolTableRecord
100
AcDbLayerTableRecord
  2
0
 70
0
 62
7
  6
Continuous
370
-3
390
 19
  0
LAYER
  5
261
330
 1A
100
AcDbSymbolTableRecord
100
AcDbLayerTableRecord
  2
SEMA2D
 70
0
 62
7
  6
Continuous
370
-3
390
 19
  0
LAYER
  5
262
330
 1A
100
AcDbSymbolTableRecord
100
AcDbLayerTableRecord
  2
SEMATEXT
 70
0
 62
7
  6
Continuous
370
-3
390
 19
  0
ENDTAB
  0
TABLE
  2
STYLE
  5
  5
100
AcDbSymbolTable
  0
STYLE
  5
  6
100
AcDbSymbolTableRecord
100
AcDbTextStyleTableRecord
  2
STANDARD
 70
     0
 40
0.0
 41
1.0
 50
0.0
 71
     0
 42
10.0
  3
txt
  4

  0
ENDTAB
  0
TABLE
  2
VIEW
  5
  7
100
AcDbSymbolTable
  0
ENDTAB
  0
TABLE
  2
UCS
  5
  8
100
AcDbSymbolTable
  0
ENDTAB
  0
TABLE
  2
APPID
  5
  9
100
AcDbSymbolTable
  0
APPID
  5
  A
100
AcDbSymbolTableRecord
100
AcDbRegAppTableRecord
  2
ACAD
 70
0
  0
ENDTAB
  0
TABLE
  2
DIMSTYLE
  5
  B
100
AcDbSymbolTable
 70
     1
100
AcDbDimStyleTable
 71
     0
  0
DIMSTYLE
105
 1B
330
B
100
AcDbSymbolTableRecord
100
AcDbDimStyleTableRecord
  2
STANDARD
 70
    0
340
  6
  0
ENDTAB
  0
TABLE
  2
BLOCK_RECORD
  5
  C
100
AcDbSymbolTable
  0
BLOCK_RECORD
  5
  D
100
AcDbSymbolTableRecord
100
AcDbBlockTableRecord
  2
*MODEL_SPACE
  0
BLOCK_RECORD
  5
  E
100
AcDbSymbolTableRecord
100
AcDbBlockTableRecord
  2
*PAPER_SPACE
  0
ENDTAB
  0
ENDSEC
  0
SECTION
  2
BLOCKS
  0
BLOCK
  5
  F
330
  D
100
AcDbEntity
  8
0
100
AcDbBlockBegin
  2
*MODEL_SPACE
 70
     0
  0
ENDBLK
  5
 10
100
AcDbEntity
  8
0
100
AcDbBlockEnd
  0
BLOCK
  5
 11
330
  E
100
AcDbEntity
  8
0
100
AcDbBlockBegin
  2
*PAPER_SPACE
 70
     0
  0
ENDBLK
  5
 12
100
AcDbEntity
  8
0
100
AcDbBlockEnd
  0
ENDSEC
  0
SECTION
  2
ENTITIES
  0
LINE
  5
33
100
AcDbEntity
  8
SEMA2D
100
AcDbLine
 62
7
  6
_SOLID
370
35
 10
3.71668696403503
 20
0.85895836353302
 11
3.46078968048096
 21
0.85895836353302
  0
LINE
  5
34
100
AcDbEntity
  8
SEMA2D
100
AcDbLine
 62
7
  6
_SOLID
370
35
 10
3.71668696403503
 20
0.833958387374878
 11
3.48578977584839
 21
0.833958387374878
  0
LINE
  5
35
100
AcDbEntity
  8
SEMA2D
100
AcDbLine
 62
7
  6
_SOLID
370
35
 10
3.46078968048096
 20
0.85895836353302
 11
3.46078968048096
 21
0.753658354282379
  0
LINE
  5
36
100
AcDbEntity
  8
SEMA2D
100
AcDbLine
 62
7
  6
_SOLID
370
35
 10
3.48578977584839
 20
0.753658354282379
 11
3.48578977584839
 21
0.85895836353302
  0
LINE
  5
37
100
AcDbEntity
  8
SEMA2D
100
AcDbLine
 62
7
  6
_SOLID
370
35
 10
3.46078968048096
 20
0.753658354282379
 11
3.48578977584839
 21
0.753658354282379
  0
ARC
  5
38
100
AcDbEntity
  8
SEMA2D
100
AcDbCircle
 62
7
  6
_SOLID
370
9
 10
3.49832725524902
 20
0.899593353271484
 40
0.0396899990737438
100
AcDbArc
 50
225.564971923828
 51
270
  0
ARC
  5
39
100
AcDbEntity
  8
SEMA2D
100
AcDbCircle
 62
7
  6
_SOLID
370
9
 10
3.58782243728638
 20
0.899593353271484
 40
0.0264599993824959
100
AcDbArc
 50
270
 51
345
  0
ARC
  5
3A
100
AcDbEntity
  8
SEMA2D
100
AcDbCircle
 62
7
  6
_SOLID
370
9
 10
3.58782243728638
 20
0.899593353271484
 40
0.0396899990737438
100
AcDbArc
 50
270
 51
307.019836425781
  0
ARC
  5
3B
100
AcDbEntity
  8
SEMA2D
100
AcDbCircle
 62
7
  6
_SOLID
370
9
 10
3.49832725524902
 20
0.899593353271484
 40
0.0264599993824959
100
AcDbArc
 50
195
 51
270
  0
LINE
  5
3C
100
AcDbEntity
  8
SEMA2D
100
AcDbLine
 62
7
  6
_SOLID
370
9
 10
3.41672945022583
 20
0.7830930352211
 11
3.42258739471436
 21
0.89486837387085
  0
LINE
  5
3D
100
AcDbEntity
  8
SEMA2D
100
AcDbLine
 62
7
  6
_SOLID
370
9
 10
3.41578412055969
 20
0.783136546611786
 11
3.41558218002319
 21
0.779283702373505
  0
LINE
  5
3E
100
AcDbEntity
  8
SEMA2D
100
AcDbLine
 62
7
  6
_SOLID
370
9
 10
3.4215030670166
 20
0.874177932739258
 11
3.44219350814819
 21
0.89486837387085
  0
LINE
  5
3F
100
AcDbEntity
  8
SEMA2D
100
AcDbLine
 62
7
  6
_SOLID
370
9
 10
3.43793129920959
 20
0.881638407707214
 11
3.43707585334778
 21
0.85895836353302
  0
LINE
  5
40
100
AcDbEntity
  8
SEMA2D
100
AcDbLine
 62
7
  6
_SOLID
370
9
 10
3.42113351821899
 20
0.867126226425171
 11
3.44887566566467
 21
0.89486837387085
  0
LINE
  5
41
100
AcDbEntity
  8
SEMA2D
100
AcDbLine
 62
7
  6
_SOLID
370
9
 10
3.41753196716309
 20
0.77693235874176
 11
3.41720104217529
 21
0.779294908046722
  0
LINE
  5
42
100
AcDbEntity
  8
SEMA2D
100
AcDbLine
 62
7
  6
_SOLID
370
9
 10
3.42187261581421
 20
0.88122969865799
 11
3.43551135063171
 21
0.89486837387085
  0
LINE
  5
43
100
AcDbEntity
  8
SEMA2D
100
AcDbLine
 62
7
  6
_SOLID
370
9
 10
3.42224216461182
 20
0.888281404972076
 11
3.42882919311523
 21
0.89486837387085
  0
LINE
  5
44
100
AcDbEntity
  8
SEMA2D
100
AcDbLine
 62
7
  6
_SOLID
370
9
 10
3.45569205284119
 20
0.881638407707214
 11
3.46892213821411
 21
0.89486837387085
  0
LINE
  5
45
100
AcDbEntity
  8
SEMA2D
100
AcDbLine
 62
7
  6
_SOLID
370
9
 10
3.42002487182617
 20
0.845971047878265
 11
3.43500423431396
 21
0.860950529575348
  0
LINE
  5
46
100
AcDbEntity
  8
SEMA2D
100
AcDbLine
 62
7
  6
_SOLID
370
9
 10
3.41965532302856
 20
0.838919341564178
 11
3.43463468551636
 21
0.853898823261261
  0
LINE
  5
47
100
AcDbEntity
  8
SEMA2D
100
AcDbLine
 62
7
  6
_SOLID
370
9
 10
3.41578412055969
 20
0.783136546611786
 11
3.41683506965637
 21
0.785106062889099
  0
LINE
  5
48
100
AcDbEntity
  8
SEMA2D
100
AcDbLine
 62
7
  6
_SOLID
370
9
 10
3.45792889595032
 20
0.877193093299866
 11
3.47292709350586
 21
0.892191112041473
  0
LINE
  5
49
100
AcDbEntity
  8
SEMA2D
100
AcDbLine
 62
7
  6
_SOLID
370
9
 10
3.446444272995
 20
0.85895836353302
 11
3.44275522232056
 21
0.799712419509888
  0
LINE
  5
4A
100
AcDbEntity
  8
SEMA2D
100
AcDbLine
 62
7
  6
_SOLID
370
9
 10
3.42076396942139
 20
0.860074520111084
 11
3.43574333190918
 21
0.875054001808167
  0
LINE
  5
4B
100
AcDbEntity
  8
SEMA2D
100
AcDbLine
 62
7
  6
_SOLID
370
9
 10
3.43608856201172
 20
0.881638407707214
 11
3.43060111999512
 21
0.77693235874176
  0
LINE
  5
4C
100
AcDbEntity
  8
SEMA2D
100
AcDbLine
 62
7
  6
_SOLID
370
9
 10
3.44232773780823
 20
0.881638407707214
 11
3.45555782318115
 21
0.89486837387085
  0
LINE
  5
4D
100
AcDbEntity
  8
SEMA2D
100
AcDbLine
 62
7
  6
_SOLID
370
9
 10
3.44900989532471
 20
0.881638407707214
 11
3.46223998069763
 21
0.89486837387085
  0
LINE
  5
4E
100
AcDbEntity
  8
SEMA2D
100
AcDbLine
 62
7
  6
_SOLID
370
9
 10
3.42039442062378
 20
0.853022813796997
 11
3.43537378311157
 21
0.86800229549408
  0
LINE
  5
4F
100
AcDbEntity
  8
SEMA2D
100
AcDbLine
 62
7
  6
_SOLID
370
9
 10
3.65110754966736
 20
0.883528351783752
 11
3.65646576881409
 21
0.883528351783752
  0
LINE
  5
50
100
AcDbEntity
  8
SEMA2D
100
AcDbLine
 62
7
  6
_SOLID
370
9
 10
3.61982846260071
 20
0.85895836353302
 11
3.61740231513977
 21
0.85895836353302
  0
LINE
  5
51
100
AcDbEntity
  8
SEMA2D
100
AcDbLine
 62
7
  6
_SOLID
370
9
 10
3.51869654655457
 20
0.892505884170532
 11
3.52823972702026
 21
0.892505884170532
  0
LINE
  5
52
100
AcDbEntity
  8
SEMA2D
100
AcDbLine
 62
7
  6
_SOLID
370
9
 10
3.60827994346619
 20
0.845728397369385
 11
3.61292552947998
 21
0.863066494464874
  0
LINE
  5
53
100
AcDbEntity
  8
SEMA2D
100
AcDbLine
 62
7
  6
_SOLID
370
9
 10
3.55413007736206
 20
0.892505884170532
 11
3.56367301940918
 21
0.892505884170532
  0
LINE
  5
54
100
AcDbEntity
  8
SEMA2D
100
AcDbLine
 62
7
  6
_SOLID
370
9
 10
3.57648539543152
 20
0.892745018005371
 11
3.55405402183533
 21
0.892745018005371
  0
LINE
  5
55
100
AcDbEntity
  8
SEMA2D
100
AcDbLine
 62
7
  6
_SOLID
370
9
 10
3.62339997291565
 20
0.883764624595642
 11
3.61762189865112
 21
0.858485877513885
  0
LINE
  5
56
100
AcDbEntity
  8
SEMA2D
100
AcDbLine
 62
7
  6
_SOLID
370
9
 10
3.43608856201172
 20
0.881638407707214
 11
3.45698404312134
 21
0.881638407707214
  0
LINE
  5
57
100
AcDbEntity
  8
SEMA2D
100
AcDbLine
 62
7
  6
_SOLID
370
9
 10
3.49865984916687
 20
0.881360471248627
 11
3.51507639884949
 21
0.881360471248627
  0
LINE
  5
58
100
AcDbEntity
  8
SEMA2D
100
AcDbLine
 62
7
  6
_SOLID
370
9
 10
3.6474974155426
 20
0.883528351783752
 11
3.65883731842041
 21
0.883528351783752
  0
LINE
  5
59
100
AcDbEntity
  8
SEMA2D
100
AcDbLine
 62
7
  6
_SOLID
370
9
 10
3.62339997291565
 20
0.883764624595642
 11
3.63710236549377
 21
0.883764624595642
  0
LINE
  5
5A
100
AcDbEntity
  8
SEMA2D
100
AcDbLine
 62
7
  6
_SOLID
370
9
 10
3.66970491409302
 20
0.883528351783752
 11
3.670649766922
 21
0.883528351783752
  0
LINE
  5
5B
100
AcDbEntity
  8
SEMA2D
100
AcDbLine
 62
7
  6
_SOLID
370
9
 10
3.64088225364685
 20
0.874078392982483
 11
3.63710236549377
 21
0.883764624595642
  0
LINE
  5
5C
100
AcDbEntity
  8
SEMA2D
100
AcDbLine
 62
7
  6
_SOLID
370
9
 10
3.6474974155426
 20
0.883528351783752
 11
3.64513492584229
 21
0.874078392982483
  0
LINE
  5
5D
100
AcDbEntity
  8
SEMA2D
100
AcDbLine
 62
7
  6
_SOLID
370
9
 10
3.66837668418884
 20
0.874078392982483
 11
3.66970491409302
 21
0.883528351783752
  0
LINE
  5
5E
100
AcDbEntity
  8
SEMA2D
100
AcDbLine
 62
7
  6
_SOLID
370
9
 10
3.66214489936829
 20
0.874078392982483
 11
3.65883731842041
 21
0.883528351783752
  0
LINE
  5
5F
100
AcDbEntity
  8
SEMA2D
100
AcDbLine
 62
7
  6
_SOLID
370
9
 10
3.670649766922
 20
0.887308359146118
 11
3.670649766922
 21
0.883528351783752
  0
LINE
  5
60
100
AcDbEntity
  8
SEMA2D
100
AcDbLine
 62
7
  6
_SOLID
370
9
 10
3.61406779289246
 20
0.858485877513885
 11
3.61171960830688
 21
0.867903828620911
  0
LINE
  5
61
100
AcDbEntity
  8
SEMA2D
100
AcDbLine
 62
7
  6
_SOLID
370
9
 10
3.528315782547
 20
0.892745018005371
 11
3.50966429710388
 21
0.892745018005371
  0
LINE
  5
62
100
AcDbEntity
  8
SEMA2D
100
AcDbLine
 62
7
  6
_SOLID
370
9
 10
3.42258739471436
 20
0.89486837387085
 11
3.66958737373352
 21
0.89486837387085
  0
LINE
  5
63
100
AcDbEntity
  8
SEMA2D
100
AcDbLine
 62
7
  6
_SOLID
370
9
 10
3.62245488166809
 20
0.85895836353302
 11
3.62375497817993
 21
0.883764624595642
  0
LINE
  5
64
100
AcDbEntity
  8
SEMA2D
100
AcDbLine
 62
7
  6
_SOLID
370
9
 10
3.58090233802795
 20
0.89486837387085
 11
3.58607149124146
 21
0.881360471248627
  0
LINE
  5
65
100
AcDbEntity
  8
SEMA2D
100
AcDbLine
 62
7
  6
_SOLID
370
9
 10
3.58748984336853
 20
0.881360471248627
 11
3.58748984336853
 21
0.873133361339569
  0
LINE
  5
66
100
AcDbEntity
  8
SEMA2D
100
AcDbLine
 62
7
  6
_SOLID
370
9
 10
3.60733485221863
 20
0.865030884742737
 11
3.61243581771851
 21
0.865030884742737
  0
LINE
  5
67
100
AcDbEntity
  8
SEMA2D
100
AcDbLine
 62
7
  6
_SOLID
370
9
 10
3.65804696083069
 20
0.883528351783752
 11
3.6693868637085
 21
0.89486837387085
  0
LINE
  5
68
100
AcDbEntity
  8
SEMA2D
100
AcDbLine
 62
7
  6
_SOLID
370
9
 10
3.49832725524902
 20
0.873133361339569
 11
3.50998902320862
 21
0.873133361339569
  0
LINE
  5
69
100
AcDbEntity
  8
SEMA2D
100
AcDbLine
 62
7
  6
_SOLID
370
9
 10
3.66036486625671
 20
0.879164218902588
 11
3.67038607597351
 21
0.889185428619385
  0
LINE
  5
6A
100
AcDbEntity
  8
SEMA2D
100
AcDbLine
 62
7
  6
_SOLID
370
9
 10
3.46898889541626
 20
0.865030884742737
 11
3.47881484031677
 21
0.865030884742737
  0
LINE
  5
6B
100
AcDbEntity
  8
SEMA2D
100
AcDbLine
 62
7
  6
_SOLID
370
9
 10
3.58782243728638
 20
0.859903395175934
 11
3.58300042152405
 21
0.859903395175934
  0
LINE
  5
6C
100
AcDbEntity
  8
SEMA2D
100
AcDbLine
 62
7
  6
_SOLID
370
9
 10
3.57473301887512
 20
0.859903395175934
 11
3.54521799087524
 21
0.859903395175934
  0
LINE
  5
6D
100
AcDbEntity
  8
SEMA2D
100
AcDbLine
 62
7
  6
_SOLID
370
9
 10
3.50220417976379
 20
0.859903395175934
 11
3.49832725524902
 21
0.859903395175934
  0
LINE
  5
6E
100
AcDbEntity
  8
SEMA2D
100
AcDbLine
 62
7
  6
_SOLID
370
9
 10
3.53809666633606
 20
0.859903395175934
 11
3.50929045677185
 21
0.859903395175934
  0
LINE
  5
6F
100
AcDbEntity
  8
SEMA2D
100
AcDbLine
 62
7
  6
_SOLID
370
9
 10
3.52734184265137
 20
0.879275858402252
 11
3.55502796173096
 21
0.879275858402252
  0
LINE
  5
70
100
AcDbEntity
  8
SEMA2D
100
AcDbLine
 62
7
  6
_SOLID
370
9
 10
3.66209721565247
 20
0.874214470386505
 11
3.66942596435547
 21
0.881543040275574
  0
LINE
  5
71
100
AcDbEntity
  8
SEMA2D
100
AcDbLine
 62
7
  6
_SOLID
370
9
 10
3.62351965904236
 20
0.879275858402252
 11
3.63885402679443
 21
0.879275858402252
  0
LINE
  5
72
100
AcDbEntity
  8
SEMA2D
100
AcDbLine
 62
7
  6
_SOLID
370
9
 10
3.58748984336853
 20
0.881360471248627
 11
3.56729340553284
 21
0.881360471248627
  0
LINE
  5
73
100
AcDbEntity
  8
SEMA2D
100
AcDbLine
 62
7
  6
_SOLID
370
9
 10
3.64643430709839
 20
0.879275858402252
 11
3.66032576560974
 21
0.879275858402252
  0
LINE
  5
74
100
AcDbEntity
  8
SEMA2D
100
AcDbLine
 62
7
  6
_SOLID
370
9
 10
3.61338090896606
 20
0.892745018005371
 11
3.6139497756958
 21
0.89486837387085
  0
LINE
  5
75
100
AcDbEntity
  8
SEMA2D
100
AcDbLine
 62
7
  6
_SOLID
370
9
 10
3.66837668418884
 20
0.874078392982483
 11
3.66214489936829
 21
0.874078392982483
  0
LINE
  5
76
100
AcDbEntity
  8
SEMA2D
100
AcDbLine
 62
7
  6
_SOLID
370
9
 10
3.57238078117371
 20
0.873133361339569
 11
3.58782243728638
 21
0.873133361339569
  0
LINE
  5
77
100
AcDbEntity
  8
SEMA2D
100
AcDbLine
 62
7
  6
_SOLID
370
9
 10
3.64088225364685
 20
0.874078392982483
 11
3.64513492584229
 21
0.874078392982483
  0
LINE
  5
78
100
AcDbEntity
  8
SEMA2D
100
AcDbLine
 62
7
  6
_SOLID
370
9
 10
3.57608699798584
 20
0.89486837387085
 11
3.57648539543152
 21
0.892745018005371
  0
LINE
  5
79
100
AcDbEntity
  8
SEMA2D
100
AcDbLine
 62
7
  6
_SOLID
370
9
 10
3.57473301887512
 20
0.859903395175934
 11
3.57826733589172
 21
0.845728397369385
  0
LINE
  5
7A
100
AcDbEntity
  8
SEMA2D
100
AcDbLine
 62
7
  6
_SOLID
370
9
 10
3.670649766922
 20
0.887308359146118
 11
3.66958737373352
 21
0.89486837387085
  0
LINE
  5
7B
100
AcDbEntity
  8
SEMA2D
100
AcDbLine
 62
7
  6
_SOLID
370
9
 10
3.51006269454956
 20
0.89486837387085
 11
3.50966429710388
 21
0.892745018005371
  0
LINE
  5
7C
100
AcDbEntity
  8
SEMA2D
100
AcDbLine
 62
7
  6
_SOLID
370
9
 10
3.47269773483276
 20
0.865030884742737
 11
3.47786998748779
 21
0.845728397369385
  0
LINE
  5
7D
100
AcDbEntity
  8
SEMA2D
100
AcDbLine
 62
7
  6
_SOLID
370
9
 10
3.42448973655701
 20
0.77693235874176
 11
3.4309389591217
 21
0.783381581306457
  0
LINE
  5
7E
100
AcDbEntity
  8
SEMA2D
100
AcDbLine
 62
7
  6
_SOLID
370
9
 10
3.5141429901123
 20
0.859903395175934
 11
3.52444529533386
 21
0.870205700397491
  0
LINE
  5
7F
100
AcDbEntity
  8
SEMA2D
100
AcDbLine
 62
7
  6
_SOLID
370
9
 10
3.50651574134827
 20
0.85895836353302
 11
3.54242587089539
 21
0.89486837387085
  0
LINE
  5
80
100
AcDbEntity
  8
SEMA2D
100
AcDbLine
 62
7
  6
_SOLID
370
9
 10
3.50077867507935
 20
0.859903395175934
 11
3.53574371337891
 21
0.89486837387085
  0
LINE
  5
81
100
AcDbEntity
  8
SEMA2D
100
AcDbLine
 62
7
  6
_SOLID
370
9
 10
3.5112943649292
 20
0.877101242542267
 11
3.51226353645325
 21
0.87807035446167
  0
LINE
  5
82
100
AcDbEntity
  8
SEMA2D
100
AcDbLine
 62
7
  6
_SOLID
370
9
 10
3.49430513381958
 20
0.860111951828003
 11
3.50732660293579
 21
0.873133361339569
  0
LINE
  5
83
100
AcDbEntity
  8
SEMA2D
100
AcDbLine
 62
7
  6
_SOLID
370
9
 10
3.51484704017639
 20
0.88065379858017
 11
3.52669906616211
 21
0.892505884170532
  0
LINE
  5
84
100
AcDbEntity
  8
SEMA2D
100
AcDbLine
 62
7
  6
_SOLID
370
9
 10
3.41780757904053
 20
0.77693235874176
 11
3.43130850791931
 21
0.790433287620544
  0
LINE
  5
85
100
AcDbEntity
  8
SEMA2D
100
AcDbLine
 62
7
  6
_SOLID
370
9
 10
3.50575637817383
 20
0.845728397369385
 11
3.50929045677185
 21
0.859903395175934
  0
LINE
  5
86
100
AcDbEntity
  8
SEMA2D
100
AcDbLine
 62
7
  6
_SOLID
370
9
 10
3.5401976108551
 20
0.879275858402252
 11
3.55396056175232
 21
0.893038868904114
  0
LINE
  5
87
100
AcDbEntity
  8
SEMA2D
100
AcDbLine
 62
7
  6
_SOLID
370
9
 10
3.55356192588806
 20
0.879275858402252
 11
3.5644359588623
 21
0.89014995098114
  0
LINE
  5
88
100
AcDbEntity
  8
SEMA2D
100
AcDbLine
 62
7
  6
_SOLID
370
9
 10
3.54687976837158
 20
0.879275858402252
 11
3.56010985374451
 21
0.892505884170532
  0
LINE
  5
89
100
AcDbEntity
  8
SEMA2D
100
AcDbLine
 62
7
  6
_SOLID
370
9
 10
3.49865984916687
 20
0.881360471248627
 11
3.49865984916687
 21
0.873133361339569
  0
LINE
  5
8A
100
AcDbEntity
  8
SEMA2D
100
AcDbLine
 62
7
  6
_SOLID
370
9
 10
3.41558218002319
 20
0.779283702373505
 11
3.41720104217529
 21
0.779294908046722
  0
LINE
  5
8B
100
AcDbEntity
  8
SEMA2D
100
AcDbLine
 62
7
  6
_SOLID
370
9
 10
3.53351545333862
 20
0.879275858402252
 11
3.54910802841186
 21
0.89486837387085
  0
LINE
  5
8C
100
AcDbEntity
  8
SEMA2D
100
AcDbLine
 62
7
  6
_SOLID
370
9
 10
3.41753196716309
 20
0.77693235874176
 11
3.43060111999512
 21
0.77693235874176
  0
LINE
  5
8D
100
AcDbEntity
  8
SEMA2D
100
AcDbLine
 62
7
  6
_SOLID
370
9
 10
3.4721999168396
 20
0.89486837387085
 11
3.47276878356934
 21
0.892745018005371
  0
LINE
  5
8E
100
AcDbEntity
  8
SEMA2D
100
AcDbLine
 62
7
  6
_SOLID
370
9
 10
3.41578412055969
 20
0.783136546611786
 11
3.41672945022583
 21
0.7830930352211
  0
LINE
  5
8F
100
AcDbEntity
  8
SEMA2D
100
AcDbLine
 62
7
  6
_SOLID
370
9
 10
3.4614429473877
 20
0.860660672187805
 11
3.4700436592102
 21
0.86926132440567
  0
LINE
  5
90
100
AcDbEntity
  8
SEMA2D
100
AcDbLine
 62
7
  6
_SOLID
370
9
 10
3.41854643821716
 20
0.817764163017273
 11
3.43352603912354
 21
0.832743644714355
  0
LINE
  5
91
100
AcDbEntity
  8
SEMA2D
100
AcDbLine
 62
7
  6
_SOLID
370
9
 10
3.47130632400513
 20
0.870523929595947
 11
3.48067164421082
 21
0.879889369010925
  0
LINE
  5
92
100
AcDbEntity
  8
SEMA2D
100
AcDbLine
 62
7
  6
_SOLID
370
9
 10
3.46642279624939
 20
0.85895836353302
 11
3.46782422065735
 21
0.860359787940979
  0
LINE
  5
93
100
AcDbEntity
  8
SEMA2D
100
AcDbLine
 62
7
  6
_SOLID
370
9
 10
3.41817688941956
 20
0.810712456703186
 11
3.43315649032593
 21
0.825691938400269
  0
LINE
  5
94
100
AcDbEntity
  8
SEMA2D
100
AcDbLine
 62
7
  6
_SOLID
370
9
 10
3.43060111999512
 20
0.77693235874176
 11
3.44275522232056
 21
0.799712419509888
  0
LINE
  5
95
100
AcDbEntity
  8
SEMA2D
100
AcDbLine
 62
7
  6
_SOLID
370
9
 10
3.45910024642944
 20
0.871682286262512
 11
3.47483777999878
 21
0.887419700622559
  0
LINE
  5
96
100
AcDbEntity
  8
SEMA2D
100
AcDbLine
 62
7
  6
_SOLID
370
9
 10
3.41928553581238
 20
0.831867635250092
 11
3.43426513671875
 21
0.846847116947174
  0
LINE
  5
97
100
AcDbEntity
  8
SEMA2D
100
AcDbLine
 62
7
  6
_SOLID
370
9
 10
3.41891598701477
 20
0.82481586933136
 11
3.43389558792114
 21
0.839795410633087
  0
LINE
  5
98
100
AcDbEntity
  8
SEMA2D
100
AcDbLine
 62
7
  6
_SOLID
370
9
 10
3.47054028511047
 20
0.871252954006195
 11
3.46735715866089
 21
0.858485877513885
  0
LINE
  5
99
100
AcDbEntity
  8
SEMA2D
100
AcDbLine
 62
7
  6
_SOLID
370
9
 10
3.46027159690857
 20
0.866171479225159
 11
3.47744607925415
 21
0.883345782756805
  0
LINE
  5
9A
100
AcDbEntity
  8
SEMA2D
100
AcDbLine
 62
7
  6
_SOLID
370
9
 10
3.48862266540527
 20
0.861111760139465
 11
3.50064444541931
 21
0.873133361339569
  0
LINE
  5
9B
100
AcDbEntity
  8
SEMA2D
100
AcDbLine
 62
7
  6
_SOLID
370
9
 10
3.46190524101257
 20
0.858485877513885
 11
3.45698404312134
 21
0.881638407707214
  0
LINE
  5
9C
100
AcDbEntity
  8
SEMA2D
100
AcDbLine
 62
7
  6
_SOLID
370
9
 10
3.4156985282898
 20
0.781505405902863
 11
3.4316782951355
 21
0.797485053539276
  0
LINE
  5
9D
100
AcDbEntity
  8
SEMA2D
100
AcDbLine
 62
7
  6
_SOLID
370
9
 10
3.50524735450745
 20
0.89486837387085
 11
3.50007843971252
 21
0.881360471248627
  0
LINE
  5
9E
100
AcDbEntity
  8
SEMA2D
100
AcDbLine
 62
7
  6
_SOLID
370
9
 10
3.41706824302673
 20
0.789557278156281
 11
3.43204784393311
 21
0.804536759853363
  0
LINE
  5
9F
100
AcDbEntity
  8
SEMA2D
100
AcDbLine
 62
7
  6
_SOLID
370
9
 10
3.41780734062195
 20
0.803660690784454
 11
3.43278694152832
 21
0.818640232086182
  0
LINE
  5
A0
100
AcDbEntity
  8
SEMA2D
100
AcDbLine
 62
7
  6
_SOLID
370
9
 10
3.47497010231018
 20
0.867505669593811
 11
3.48450040817261
 21
0.877036035060883
  0
LINE
  5
A1
100
AcDbEntity
  8
SEMA2D
100
AcDbLine
 62
7
  6
_SOLID
370
9
 10
3.47904753684998
 20
0.864900767803192
 11
3.48898458480835
 21
0.874837994575501
  0
LINE
  5
A2
100
AcDbEntity
  8
SEMA2D
100
AcDbLine
 62
7
  6
_SOLID
370
9
 10
3.48357796669006
 20
0.862749099731445
 11
3.49427700042725
 21
0.873448252677917
  0
LINE
  5
A3
100
AcDbEntity
  8
SEMA2D
100
AcDbLine
 62
7
  6
_SOLID
370
9
 10
3.41743779182434
 20
0.796608984470367
 11
3.43241739273071
 21
0.81158846616745
  0
LINE
  5
A4
100
AcDbEntity
  8
SEMA2D
100
AcDbLine
 62
7
  6
_SOLID
370
9
 10
3.63929653167725
 20
0.878142297267914
 11
3.65602254867554
 21
0.89486837387085
  0
LINE
  5
A5
100
AcDbEntity
  8
SEMA2D
100
AcDbLine
 62
7
  6
_SOLID
370
9
 10
3.5827648639679
 20
0.85895836353302
 11
3.58300042152405
 21
0.859903395175934
  0
LINE
  5
A6
100
AcDbEntity
  8
SEMA2D
100
AcDbLine
 62
7
  6
_SOLID
370
9
 10
3.64191460609436
 20
0.874078392982483
 11
3.6462082862854
 21
0.878371953964233
  0
LINE
  5
A7
100
AcDbEntity
  8
SEMA2D
100
AcDbLine
 62
7
  6
_SOLID
370
9
 10
3.61762189865112
 20
0.858485877513885
 11
3.61406779289246
 21
0.858485877513885
  0
LINE
  5
A8
100
AcDbEntity
  8
SEMA2D
100
AcDbLine
 62
7
  6
_SOLID
370
9
 10
3.65136480331421
 20
0.883528351783752
 11
3.66270470619202
 21
0.89486837387085
  0
LINE
  5
A9
100
AcDbEntity
  8
SEMA2D
100
AcDbLine
 62
7
  6
_SOLID
370
9
 10
3.63742065429687
 20
0.882948756217956
 11
3.64934039115906
 21
0.89486837387085
  0
LINE
  5
AA
100
AcDbEntity
  8
SEMA2D
100
AcDbLine
 62
7
  6
_SOLID
370
9
 10
3.61251258850098
 20
0.864722788333893
 11
3.61326813697815
 21
0.865478217601776
  0
LINE
  5
AB
100
AcDbEntity
  8
SEMA2D
100
AcDbLine
 62
7
  6
_SOLID
370
9
 10
3.57826733589172
 20
0.845728397369385
 11
3.60827994346619
 21
0.845728397369385
  0
LINE
  5
AC
100
AcDbEntity
  8
SEMA2D
100
AcDbLine
 62
7
  6
_SOLID
370
9
 10
3.61941051483154
 20
0.871620714664459
 11
3.62098360061646
 21
0.873193860054016
  0
LINE
  5
AD
100
AcDbEntity
  8
SEMA2D
100
AcDbLine
 62
7
  6
_SOLID
370
9
 10
3.61384630203247
 20
0.859374165534973
 11
3.61856460571289
 21
0.864092707633972
  0
LINE
  5
AE
100
AcDbEntity
  8
SEMA2D
100
AcDbLine
 62
7
  6
_SOLID
370
9
 10
3.63155436515808
 20
0.883764624595642
 11
3.64265823364258
 21
0.89486837387085
  0
LINE
  5
AF
100
AcDbEntity
  8
SEMA2D
100
AcDbLine
 62
7
  6
_SOLID
370
9
 10
3.43707585334778
 20
0.85895836353302
 11
3.46747493743897
 21
0.85895836353302
  0
LINE
  5
B0
100
AcDbEntity
  8
SEMA2D
100
AcDbLine
 62
7
  6
_SOLID
370
9
 10
3.50243997573853
 20
0.85895836353302
 11
3.5090548992157
 21
0.85895836353302
  0
LINE
  5
B1
100
AcDbEntity
  8
SEMA2D
100
AcDbLine
 62
7
  6
_SOLID
370
9
 10
3.6139497756958
 20
0.85895836353302
 11
3.62245488166809
 21
0.85895836353302
  0
LINE
  5
B2
100
AcDbEntity
  8
SEMA2D
100
AcDbLine
 62
7
  6
_SOLID
370
9
 10
3.57496857643127
 20
0.85895836353302
 11
3.5827648639679
 21
0.85895836353302
  0
LINE
  5
B3
100
AcDbEntity
  8
SEMA2D
100
AcDbLine
 62
7
  6
_SOLID
370
9
 10
3.54496479034424
 20
0.85895836353302
 11
3.53834986686707
 21
0.85895836353302
  0
LINE
  5
B4
100
AcDbEntity
  8
SEMA2D
100
AcDbLine
 62
7
  6
_SOLID
370
9
 10
3.46190524101257
 20
0.858485877513885
 11
3.46735715866089
 21
0.858485877513885
  0
LINE
  5
B5
100
AcDbEntity
  8
SEMA2D
100
AcDbLine
 62
7
  6
_SOLID
370
9
 10
3.56760025024414
 20
0.859903395175934
 11
3.58083033561707
 21
0.873133361339569
  0
LINE
  5
B6
100
AcDbEntity
  8
SEMA2D
100
AcDbLine
 62
7
  6
_SOLID
370
9
 10
3.54921746253967
 20
0.845728397369385
 11
3.55301547050476
 21
0.859903395175934
  0
LINE
  5
B7
100
AcDbEntity
  8
SEMA2D
100
AcDbLine
 62
7
  6
_SOLID
370
9
 10
3.58001947402954
 20
0.85895836353302
 11
3.59526610374451
 21
0.874204993247986
  0
LINE
  5
B8
100
AcDbEntity
  8
SEMA2D
100
AcDbLine
 62
7
  6
_SOLID
370
9
 10
3.57428240776062
 20
0.859903395175934
 11
3.58751249313354
 21
0.873133361339569
  0
LINE
  5
B9
100
AcDbEntity
  8
SEMA2D
100
AcDbLine
 62
7
  6
_SOLID
370
9
 10
3.56115579605103
 20
0.860141098499298
 11
3.57414817810059
 21
0.873133361339569
  0
LINE
  5
BA
100
AcDbEntity
  8
SEMA2D
100
AcDbLine
 62
7
  6
_SOLID
370
9
 10
3.50220417976379
 20
0.859903395175934
 11
3.50243997573853
 21
0.85895836353302
  0
LINE
  5
BB
100
AcDbEntity
  8
SEMA2D
100
AcDbLine
 62
7
  6
_SOLID
370
9
 10
3.5562891960144
 20
0.875320911407471
 11
3.56607341766357
 21
0.88510525226593
  0
LINE
  5
BC
100
AcDbEntity
  8
SEMA2D
100
AcDbLine
 62
7
  6
_SOLID
370
9
 10
3.55790781974793
 20
0.870257437229156
 11
3.56774234771729
 21
0.880092024803162
  0
LINE
  5
BD
100
AcDbEntity
  8
SEMA2D
100
AcDbLine
 62
7
  6
_SOLID
370
9
 10
3.54521799087524
 20
0.859903395175934
 11
3.54496479034424
 21
0.85895836353302
  0
LINE
  5
BE
100
AcDbEntity
  8
SEMA2D
100
AcDbLine
 62
7
  6
_SOLID
370
9
 10
3.55953001976013
 20
0.865197539329529
 11
3.57116413116455
 21
0.876831412315369
  0
LINE
  5
BF
100
AcDbEntity
  8
SEMA2D
100
AcDbLine
 62
7
  6
_SOLID
370
9
 10
3.61941051483154
 20
0.878302872180939
 11
3.62296366691589
 21
0.881855905056
  0
LINE
  5
C0
100
AcDbEntity
  8
SEMA2D
100
AcDbLine
 62
7
  6
_SOLID
370
9
 10
3.60485172271729
 20
0.863743901252747
 11
3.61326813697815
 21
0.872160375118256
  0
LINE
  5
C1
100
AcDbEntity
  8
SEMA2D
100
AcDbLine
 62
7
  6
_SOLID
370
9
 10
3.6248722076416
 20
0.883764624595642
 11
3.6359760761261
 21
0.89486837387085
  0
LINE
  5
C2
100
AcDbEntity
  8
SEMA2D
100
AcDbLine
 62
7
  6
_SOLID
370
9
 10
3.53504228591919
 20
0.845728397369385
 11
3.54921746253967
 21
0.845728397369385
  0
LINE
  5
C3
100
AcDbEntity
  8
SEMA2D
100
AcDbLine
 62
7
  6
_SOLID
370
9
 10
3.47786998748779
 20
0.845728397369385
 11
3.50575637817383
 21
0.845728397369385
  0
LINE
  5
C4
100
AcDbEntity
  8
SEMA2D
100
AcDbLine
 62
7
  6
_SOLID
370
9
 10
3.61340188980103
 20
0.878976464271545
 11
3.62929391860962
 21
0.89486837387085
  0
LINE
  5
C5
100
AcDbEntity
  8
SEMA2D
100
AcDbLine
 62
7
  6
_SOLID
370
9
 10
3.58764672279358
 20
0.859903395175934
 11
3.62261176109314
 21
0.89486837387085
  0
LINE
  5
C6
100
AcDbEntity
  8
SEMA2D
100
AcDbLine
 62
7
  6
_SOLID
370
9
 10
3.61321091651916
 20
0.892149686813354
 11
3.61592960357666
 21
0.89486837387085
  0
LINE
  5
C7
100
AcDbEntity
  8
SEMA2D
100
AcDbLine
 62
7
  6
_SOLID
370
9
 10
3.5312442779541
 20
0.859903395175934
 11
3.53504228591919
 21
0.845728397369385
  0
LINE
  5
C8
100
AcDbEntity
  8
SEMA2D
100
AcDbLine
 62
7
  6
_SOLID
370
9
 10
3.59498262405396
 20
0.860557079315186
 11
3.61326813697815
 21
0.878842532634735
  0
LINE
  5
C9
100
AcDbEntity
  8
SEMA2D
100
AcDbLine
 62
7
  6
_SOLID
370
9
 10
3.53834986686707
 20
0.85895836353302
 11
3.53809666633606
 21
0.859903395175934
  0
LINE
  5
CA
100
AcDbEntity
  8
SEMA2D
100
AcDbLine
 62
7
  6
_SOLID
370
9
 10
3.52734184265137
 20
0.879275858402252
 11
3.52113747596741
 21
0.859903395175934
  0
LINE
  5
CB
100
AcDbEntity
  8
SEMA2D
100
AcDbLine
 62
7
  6
_SOLID
370
9
 10
3.54118490219116
 20
0.85895836353302
 11
3.54118490219116
 21
0.879275858402252
  0
LINE
  5
CC
100
AcDbEntity
  8
SEMA2D
100
AcDbLine
 62
7
  6
_SOLID
370
9
 10
3.55502796173096
 20
0.879275858402252
 11
3.56123232841492
 21
0.859903395175934
  0
LINE
  5
CD
100
AcDbEntity
  8
SEMA2D
100
AcDbLine
 62
7
  6
_SOLID
370
9
 10
3.56367301940918
 20
0.892505884170532
 11
3.56756281852722
 21
0.880531251430511
  0
LINE
  5
CE
100
AcDbEntity
  8
SEMA2D
100
AcDbLine
 62
7
  6
_SOLID
370
9
 10
3.51869654655457
 20
0.892505884170532
 11
3.5148069858551
 21
0.880531251430511
  0
ARC
  5
CF
100
AcDbEntity
  8
SEMA2D
100
AcDbCircle
 62
7
  6
_SOLID
370
9
 10
3.56363034248352
 20
0.872702419757843
 40
0.00876096356660128
100
AcDbArc
 50
2.81967878341675
 51
63.3297920227051
  0
ARC
  5
D0
100
AcDbEntity
  8
SEMA2D
100
AcDbCircle
 62
7
  6
_SOLID
370
9
 10
3.51984882354736
 20
0.87197995185852
 40
0.00992694217711687
100
AcDbArc
 50
120.523040771484
 51
173.327484130859
  0
ARC
  5
D1
100
AcDbEntity
  8
SEMA2D
100
AcDbCircle
 62
7
  6
_SOLID
370
9
 10
3.53159546852112
 20
0.891346156597137
 40
0.00355050479993224
100
AcDbArc
 50
97.2396621704102
 51
160.935684204102
  0
ARC
  5
D2
100
AcDbEntity
  8
SEMA2D
100
AcDbCircle
 62
7
  6
_SOLID
370
9
 10
3.54999756813049
 20
0.890375912189484
 40
0.00464917719364166
100
AcDbArc
 50
27.2671852111816
 51
75.0819396972656
  0
LINE
  5
D3
100
AcDbEntity
  8
SEMA2D
100
AcDbLine
 62
7
  6
_SOLID
370
9
 10
3.13393592834473
 20
0.532123148441315
 11
3.19318199157715
 21
0.538874089717865
  0
LINE
  5
D4
100
AcDbEntity
  8
SEMA2D
100
AcDbLine
 62
7
  6
_SOLID
370
9
 10
3.13393592834473
 20
0.532123148441315
 11
3.13314342498779
 21
0.539078116416931
  0
LINE
  5
D5
100
AcDbEntity
  8
SEMA2D
100
AcDbLine
 62
7
  6
_SOLID
370
9
 10
3.13393592834473
 20
0.532123148441315
 11
3.13472843170166
 21
0.525168120861053
  0
LINE
  5
D6
100
AcDbEntity
  8
SEMA2D
100
AcDbLine
 62
7
  6
_SOLID
370
9
 10
3.13393592834473
 20
0.532123148441315
 11
3.1395628452301
 21
0.536286950111389
  0
LINE
  5
D7
100
AcDbEntity
  8
SEMA2D
100
AcDbLine
 62
7
  6
_SOLID
370
9
 10
3.13393592834473
 20
0.532123148441315
 11
3.12830901145935
 21
0.527959287166595
  0
LINE
  5
D8
100
AcDbEntity
  8
SEMA2D
100
AcDbLine
 62
7
  6
_DOT
370
9
 10
3.12827515602112
 20
0.581801652908325
 11
3.13393592834473
 21
0.532123148441315
  0
LINE
  5
D9
100
AcDbEntity
  8
SEMA2D
100
AcDbLine
 62
7
  6
_DOT
370
9
 10
3.12827515602112
 20
0.581801652908325
 11
3.12827515602112
 21
0.581801652908325
  0
MTEXT
  5
DA
100
AcDbEntity
  8
SEMATEXT
100
AcDbMText
 62
7
 10
3.15747857093811
 20
0.53976321220398
 40
0.00800000037997961
 50
6.5007004737854
 71
7
  1
{\fArial Narrow;60}
  7
STANDARD
 73
2
  0
LINE
  5
DB
100
AcDbEntity
  8
SEMA2D
100
AcDbLine
 62
7
  6
_SOLID
370
9
 10
3.19318199157715
 20
0.538874089717865
 11
3.19238948822022
 21
0.545829057693481
  0
LINE
  5
DC
100
AcDbEntity
  8
SEMA2D
100
AcDbLine
 62
7
  6
_SOLID
370
9
 10
3.19318199157715
 20
0.538874089717865
 11
3.19397449493408
 21
0.531919121742249
  0
LINE
  5
DD
100
AcDbEntity
  8
SEMA2D
100
AcDbLine
 62
7
  6
_SOLID
370
9
 10
3.19318199157715
 20
0.538874089717865
 11
3.19880890846252
 21
0.543037891387939
  0
LINE
  5
DE
100
AcDbEntity
  8
SEMA2D
100
AcDbLine
 62
7
  6
_SOLID
370
9
 10
3.19318199157715
 20
0.538874089717865
 11
3.18755507469177
 21
0.534710228443146
  0
LINE
  5
DF
100
AcDbEntity
  8
SEMA2D
100
AcDbLine
 62
7
  6
_DOT
370
9
 10
3.18752121925354
 20
0.588552594184876
 11
3.19318199157715
 21
0.538874089717865
  0
LINE
  5
E0
100
AcDbEntity
  8
SEMA2D
100
AcDbLine
 62
7
  6
_DOT
370
9
 10
3.18752121925354
 20
0.588552594184876
 11
3.18752121925354
 21
0.588552594184876
  0
LINE
  5
E1
100
AcDbEntity
  8
SEMA2D
100
AcDbLine
 62
7
  6
_SOLID
370
9
 10
3.09236526489258
 20
0.65409642457962
 11
3.14350008964539
 21
0.65409642457962
  0
LINE
  5
E2
100
AcDbEntity
  8
SEMA2D
100
AcDbLine
 62
7
  6
_SOLID
370
9
 10
3.09236526489258
 20
0.65409642457962
 11
3.09236526489258
 21
0.661096394062042
  0
LINE
  5
E3
100
AcDbEntity
  8
SEMA2D
100
AcDbLine
 62
7
  6
_SOLID
370
9
 10
3.09236526489258
 20
0.65409642457962
 11
3.09236526489258
 21
0.647096395492554
  0
LINE
  5
E4
100
AcDbEntity
  8
SEMA2D
100
AcDbLine
 62
7
  6
_SOLID
370
9
 10
3.09236526489258
 20
0.65409642457962
 11
3.09842729568481
 21
0.657596409320831
  0
LINE
  5
E5
100
AcDbEntity
  8
SEMA2D
100
AcDbLine
 62
7
  6
_SOLID
370
9
 10
3.09236526489258
 20
0.65409642457962
 11
3.08630299568176
 21
0.650596439838409
  0
LINE
  5
E6
100
AcDbEntity
  8
SEMA2D
100
AcDbLine
 62
7
  6
_DOT
370
9
 10
3.09236526489258
 20
0.604096412658691
 11
3.09236526489258
 21
0.65409642457962
  0
LINE
  5
E7
100
AcDbEntity
  8
SEMA2D
100
AcDbLine
 62
7
  6
_DOT
370
9
 10
3.09236526489258
 20
0.604096412658691
 11
3.09236526489258
 21
0.604096412658691
  0
MTEXT
  5
E8
100
AcDbEntity
  8
SEMATEXT
100
AcDbMText
 62
7
 10
3.10604453086853
 20
0.659022033214569
 40
0.00800000037997961
 71
7
  1
{\fArial Narrow;36}
  7
STANDARD
 73
2
  0
LINE
  5
E9
100
AcDbEntity
  8
SEMA2D
100
AcDbLine
 62
7
  6
_SOLID
370
9
 10
3.12827515602112
 20
0.65409642457962
 11
3.12827515602112
 21
0.661096394062042
  0
LINE
  5
EA
100
AcDbEntity
  8
SEMA2D
100
AcDbLine
 62
7
  6
_SOLID
370
9
 10
3.12827515602112
 20
0.65409642457962
 11
3.12827515602112
 21
0.647096395492554
  0
LINE
  5
EB
100
AcDbEntity
  8
SEMA2D
100
AcDbLine
 62
7
  6
_SOLID
370
9
 10
3.12827515602112
 20
0.65409642457962
 11
3.13433742523193
 21
0.657596409320831
  0
LINE
  5
EC
100
AcDbEntity
  8
SEMA2D
100
AcDbLine
 62
7
  6
_SOLID
370
9
 10
3.12827515602112
 20
0.65409642457962
 11
3.12221312522888
 21
0.650596439838409
  0
LINE
  5
ED
100
AcDbEntity
  8
SEMA2D
100
AcDbLine
 62
7
  6
_DOT
370
9
 10
3.12827515602112
 20
0.604096412658691
 11
3.12827515602112
 21
0.65409642457962
  0
LINE
  5
EE
100
AcDbEntity
  8
SEMA2D
100
AcDbLine
 62
7
  6
_DOT
370
9
 10
3.12827515602112
 20
0.604096412658691
 11
3.12827515602112
 21
0.604096412658691
  0
MTEXT
  5
EF
100
AcDbEntity
  8
SEMATEXT
100
AcDbMText
 62
7
 10
3.13161182403564
 20
0.659022033214569
 40
0.00800000037997961
 71
7
  1
{\fArial Narrow;15}
  7
STANDARD
 73
2
  0
LINE
  5
F0
100
AcDbEntity
  8
SEMA2D
100
AcDbLine
 62
7
  6
_SOLID
370
9
 10
3.14350008964539
 20
0.65409642457962
 11
3.14350008964539
 21
0.661096394062042
  0
LINE
  5
F1
100
AcDbEntity
  8
SEMA2D
100
AcDbLine
 62
7
  6
_SOLID
370
9
 10
3.14350008964539
 20
0.65409642457962
 11
3.14350008964539
 21
0.647096395492554
  0
LINE
  5
F2
100
AcDbEntity
  8
SEMA2D
100
AcDbLine
 62
7
  6
_SOLID
370
9
 10
3.14350008964539
 20
0.65409642457962
 11
3.14956212043762
 21
0.657596409320831
  0
LINE
  5
F3
100
AcDbEntity
  8
SEMA2D
100
AcDbLine
 62
7
  6
_SOLID
370
9
 10
3.14350008964539
 20
0.65409642457962
 11
3.13743782043457
 21
0.650596439838409
  0
LINE
  5
F4
100
AcDbEntity
  8
SEMA2D
100
AcDbLine
 62
7
  6
_DOT
370
9
 10
3.14350008964539
 20
0.604096412658691
 11
3.14350008964539
 21
0.65409642457962
  0
LINE
  5
F5
100
AcDbEntity
  8
SEMA2D
100
AcDbLine
 62
7
  6
_DOT
370
9
 10
3.14350008964539
 20
0.65409642457962
 11
3.14350008964539
 21
0.604096412658691
  0
LINE
  5
F6
100
AcDbEntity
  8
SEMA2D
100
AcDbLine
 62
7
  6
_SOLID
370
9
 10
3.12951111793518
 20
0.188205987215042
 11
3.10370516777039
 21
0.187615320086479
  0
LINE
  5
F7
100
AcDbEntity
  8
SEMA2D
100
AcDbLine
 62
7
  6
_SOLID
370
9
 10
3.09992527961731
 20
0.187461420893669
 11
3.10370516777039
 21
0.187461420893669
  0
LINE
  5
F8
100
AcDbEntity
  8
SEMA2D
100
AcDbLine
 62
7
  6
_SOLID
370
9
 10
3.12835574150085
 20
0.190907880663872
 11
3.11315512657166
 21
0.194980844855309
  0
LINE
  5
F9
100
AcDbEntity
  8
SEMA2D
100
AcDbLine
 62
7
  6
_SOLID
370
9
 10
3.09992527961731
 20
0.187461420893669
 11
3.09568548202515
 21
0.187558457255363
  0
LINE
  5
FA
100
AcDbEntity
  8
SEMA2D
100
AcDbLine
 62
7
  6
_SOLID
370
9
 10
3.10370516777039
 20
0.186954170465469
 11
3.12955355644226
 21
0.188106849789619
  0
LINE
  5
FB
100
AcDbEntity
  8
SEMA2D
100
AcDbLine
 62
7
  6
_SOLID
370
9
 10
3.09992527961731
 20
0.187149569392204
 11
3.12449526786804
 21
0.177471190690994
  0
LINE
  5
FC
100
AcDbEntity
  8
SEMA2D
100
AcDbLine
 62
7
  6
_SOLID
370
9
 10
3.10370516777039
 20
0.186954170465469
 11
3.12827515602112
 21
0.178011417388916
  0
LINE
  5
FD
100
AcDbEntity
  8
SEMA2D
100
AcDbLine
 62
7
  6
_SOLID
370
9
 10
3.23270511627197
 20
0.194020658731461
 11
3.14528512954712
 21
0.178641393780708
  0
LINE
  5
FE
100
AcDbEntity
  8
SEMA2D
100
AcDbLine
 62
7
  6
_SOLID
370
9
 10
3.11037492752075
 20
0.184526592493057
 11
3.13063764572144
 21
0.185571417212486
  0
LINE
  5
FF
100
AcDbEntity
  8
SEMA2D
100
AcDbLine
 62
7
  6
_SOLID
370
9
 10
3.12827515602112
 20
0.176121428608894
 11
3.14528512954712
 21
0.178512021899223
  0
LINE
  5
100
100
AcDbEntity
  8
SEMA2D
100
AcDbLine
 62
7
  6
_SOLID
370
9
 10
3.09378266334534
 20
0.555994093418121
 11
3.09378266334534
 21
0.51564621925354
  0
LINE
  5
101
100
AcDbEntity
  8
SEMA2D
100
AcDbLine
 62
7
  6
_SOLID
370
9
 10
3.09236526489258
 20
0.55637389421463
 11
3.09236526489258
 21
0.60303395986557
  0
LINE
  5
102
100
AcDbEntity
  8
SEMA2D
100
AcDbLine
 62
7
  6
_SOLID
370
9
 10
3.09709024429321
 20
0.582907974720001
 11
3.09709024429321
 21
0.564254999160767
  0
LINE
  5
103
100
AcDbEntity
  8
SEMA2D
100
AcDbLine
 62
7
  6
_SOLID
370
9
 10
3.09992527961731
 20
0.187149569392204
 11
3.09992527961731
 21
0.604096412658691
  0
LINE
  5
104
100
AcDbEntity
  8
SEMA2D
100
AcDbLine
 62
7
  6
_SOLID
370
9
 10
3.09898018836975
 20
0.592524647712707
 11
3.09898018836975
 21
0.583173632621765
  0
LINE
  5
105
100
AcDbEntity
  8
SEMA2D
100
AcDbLine
 62
7
  6
_SOLID
370
9
 10
3.09236526489258
 20
0.515266418457031
 11
3.09236526489258
 21
0.19963575899601
  0
LINE
  5
106
100
AcDbEntity
  8
SEMA2D
100
AcDbLine
 62
7
  6
_SOLID
370
9
 10
3.12827515602112
 20
0.241326421499252
 11
3.11315512657166
 21
0.240003600716591
  0
LINE
  5
107
100
AcDbEntity
  8
SEMA2D
100
AcDbLine
 62
7
  6
_SOLID
370
9
 10
3.14528512954712
 20
0.186516419053078
 11
3.12827515602112
 21
0.19107423722744
  0
LINE
  5
108
100
AcDbEntity
  8
SEMA2D
100
AcDbLine
 62
7
  6
_SOLID
370
9
 10
3.12827515602112
 20
0.260226428508759
 11
3.11315512657166
 21
0.261549264192581
  0
LINE
  5
109
100
AcDbEntity
  8
SEMA2D
100
AcDbLine
 62
7
  6
_SOLID
370
9
 10
3.13063764572144
 20
0.185571417212486
 11
3.12835574150085
 21
0.190907880663872
  0
LINE
  5
10A
100
AcDbEntity
  8
SEMA2D
100
AcDbLine
 62
7
  6
_SOLID
370
9
 10
3.12827515602112
 20
0.555668532848358
 11
3.1287477016449
 21
0.556486904621124
  0
LINE
  5
10B
100
AcDbEntity
  8
SEMA2D
100
AcDbLine
 62
7
  6
_SOLID
370
9
 10
3.13063764572144
 20
0.178170755505562
 11
3.12827515602112
 21
0.178011417388916
  0
LINE
  5
10C
100
AcDbEntity
  8
SEMA2D
100
AcDbLine
 62
7
  6
_SOLID
370
9
 10
3.12449526786804
 20
0.175176426768303
 11
3.12827515602112
 21
0.175176426768303
  0
LINE
  5
10D
100
AcDbEntity
  8
SEMA2D
100
AcDbLine
 62
7
  6
_SOLID
370
9
 10
3.10370516777039
 20
0.186654314398766
 11
3.12827515602112
 21
0.177711576223373
  0
LINE
  5
10E
100
AcDbEntity
  8
SEMA2D
100
AcDbLine
 62
7
  6
_SOLID
370
9
 10
3.11393117904663
 20
0.17610065639019
 11
3.12449526786804
 21
0.175176426768303
  0
LINE
  5
10F
100
AcDbEntity
  8
SEMA2D
100
AcDbLine
 62
7
  6
_SOLID
370
9
 10
3.09992527961731
 20
0.583306431770325
 11
3.10370516777039
 21
0.583306431770325
  0
LINE
  5
110
100
AcDbEntity
  8
SEMA2D
100
AcDbLine
 62
7
  6
_SOLID
370
9
 10
3.14350008964539
 20
0.576098144054413
 11
3.12827515602112
 21
0.573413610458374
  0
LINE
  5
111
100
AcDbEntity
  8
SEMA2D
100
AcDbLine
 62
7
  6
_SOLID
370
9
 10
3.10370516777039
 20
0.58283394575119
 11
3.11315512657166
 21
0.581505835056305
  0
LINE
  5
112
100
AcDbEntity
  8
SEMA2D
100
AcDbLine
 62
7
  6
_SOLID
370
9
 10
3.09709024429321
 20
0.582907974720001
 11
3.09992527961731
 21
0.583306431770325
  0
LINE
  5
113
100
AcDbEntity
  8
SEMA2D
100
AcDbLine
 62
7
  6
_SOLID
370
9
 10
3.14350008964539
 20
0.583716928958893
 11
3.12827515602112
 21
0.58779639005661
  0
LINE
  5
114
100
AcDbEntity
  8
SEMA2D
100
AcDbLine
 62
7
  6
_SOLID
370
9
 10
3.09236526489258
 20
0.562988936901093
 11
3.09709024429321
 21
0.564254999160767
  0
LINE
  5
115
100
AcDbEntity
  8
SEMA2D
100
AcDbLine
 62
7
  6
_SOLID
370
9
 10
3.09236526489258
 20
0.515266418457031
 11
3.09378266334534
 21
0.51564621925354
  0
LINE
  5
116
100
AcDbEntity
  8
SEMA2D
100
AcDbLine
 62
7
  6
_SOLID
370
9
 10
3.09992527961731
 20
0.187149569392204
 11
3.09707951545715
 21
0.185475170612335
  0
LINE
  5
117
100
AcDbEntity
  8
SEMA2D
100
AcDbLine
 62
7
  6
_SOLID
370
9
 10
3.12827515602112
 20
0.527551412582397
 11
3.11315512657166
 21
0.527551412582397
  0
LINE
  5
118
100
AcDbEntity
  8
SEMA2D
100
AcDbLine
 62
7
  6
_SOLID
370
9
 10
3.09236526489258
 20
0.594173908233643
 11
3.09898018836975
 21
0.592524647712707
  0
LINE
  5
119
100
AcDbEntity
  8
SEMA2D
100
AcDbLine
 62
7
  6
_SOLID
370
9
 10
3.09236526489258
 20
0.55637389421463
 11
3.09378266334534
 21
0.555994093418121
  0
LINE
  5
11A
100
AcDbEntity
  8
SEMA2D
100
AcDbLine
 62
7
  6
_SOLID
370
9
 10
3.18752121925354
 20
0.588552594184876
 11
3.11573624610901
 21
0.601460576057434
  0
LINE
  5
11B
100
AcDbEntity
  8
SEMA2D
100
AcDbLine
 62
7
  6
_SOLID
370
9
 10
3.10556530952454
 20
0.602890014648438
 11
3.10442662239075
 21
0.603094756603241
  0
LINE
  5
11C
100
AcDbEntity
  8
SEMA2D
100
AcDbLine
 62
7
  6
_SOLID
370
9
 10
3.09898018836975
 20
0.58708643913269
 11
3.11315512657166
 21
0.58708643913269
  0
LINE
  5
11D
100
AcDbEntity
  8
SEMA2D
100
AcDbLine
 62
7
  6
_SOLID
370
9
 10
3.09236526489258
 20
0.60303395986557
 11
3.09992527961731
 21
0.604096412658691
  0
LINE
  5
11E
100
AcDbEntity
  8
SEMA2D
100
AcDbLine
 62
7
  6
_SOLID
370
9
 10
3.09992527961731
 20
0.604096412658691
 11
3.10370516777039
 21
0.604096412658691
  0
LINE
  5
11F
100
AcDbEntity
  8
SEMA2D
100
AcDbLine
 62
7
  6
_SOLID
370
9
 10
3.10442662239075
 20
0.603094756603241
 11
3.10371136665344
 21
0.603195250034332
  0
LINE
  5
120
100
AcDbEntity
  8
SEMA2D
100
AcDbLine
 62
7
  6
_SOLID
370
9
 10
3.10370516777039
 20
0.603151440620422
 11
3.11573624610901
 21
0.601460576057434
  0
LINE
  5
121
100
AcDbEntity
  8
SEMA2D
100
AcDbLine
 62
7
  6
_SOLID
370
9
 10
3.12827515602112
 20
0.175176426768303
 11
3.12827515602112
 21
0.178011417388916
  0
LINE
  5
122
100
AcDbEntity
  8
SEMA2D
100
AcDbLine
 62
7
  6
_SOLID
370
9
 10
3.12827515602112
 20
0.568299412727356
 11
3.12827515602112
 21
0.599205911159515
  0
LINE
  5
123
100
AcDbEntity
  8
SEMA2D
100
AcDbLine
 62
7
  6
_SOLID
370
9
 10
3.12827515602112
 20
0.19092945754528
 11
3.12827515602112
 21
0.555668532848358
  0
LINE
  5
124
100
AcDbEntity
  8
SEMA2D
100
AcDbLine
 62
7
  6
_SOLID
370
9
 10
3.10370516777039
 20
0.186654314398766
 11
3.10370516777039
 21
0.604096412658691
  0
LINE
  5
125
100
AcDbEntity
  8
SEMA2D
100
AcDbLine
 62
7
  6
_SOLID
370
9
 10
3.11315512657166
 20
0.194980844855309
 11
3.11315512657166
 21
0.601823329925537
  0
LINE
  5
126
100
AcDbEntity
  8
SEMA2D
100
AcDbLine
 62
7
  6
_SOLID
370
9
 10
3.12449526786804
 20
0.175176426768303
 11
3.12449526786804
 21
0.177471190690994
  0
LINE
  5
127
100
AcDbEntity
  8
SEMA2D
100
AcDbLine
 62
7
  6
_SOLID
370
9
 10
3.23247885704041
 20
0.19400779902935
 11
3.18752121925354
 21
0.588552594184876
  0
LINE
  5
128
100
AcDbEntity
  8
SEMA2D
100
AcDbLine
 62
7
  6
_SOLID
370
9
 10
3.1287477016449
 20
0.567826926708221
 11
3.12827515602112
 21
0.568299412727356
  0
LINE
  5
129
100
AcDbEntity
  8
SEMA2D
100
AcDbLine
 62
7
  6
_SOLID
370
9
 10
3.12827515602112
 20
0.508651435375214
 11
3.11315512657166
 21
0.505985379219055
  0
LINE
  5
12A
100
AcDbEntity
  8
SEMA2D
100
AcDbLine
 62
7
  6
_SOLID
370
9
 10
3.14528512954712
 20
0.178512021899223
 11
3.14528512954712
 21
0.186516419053078
  0
LINE
  5
12B
100
AcDbEntity
  8
SEMA2D
100
AcDbLine
 62
7
  6
_SOLID
370
9
 10
3.1287477016449
 20
0.556486904621124
 11
3.1287477016449
 21
0.567826926708221
  0
LINE
  5
12C
100
AcDbEntity
  8
SEMA2D
100
AcDbLine
 62
7
  6
_SOLID
370
9
 10
3.14350008964539
 20
0.583716928958893
 11
3.14350008964539
 21
0.576098144054413
  0
LINE
  5
12D
100
AcDbEntity
  8
SEMA2D
100
AcDbLine
 62
7
  6
_SOLID
370
9
 10
3.13063764572144
 20
0.176453456282616
 11
3.13063764572144
 21
0.185571417212486
  0
ARC
  5
12E
100
AcDbEntity
  8
SEMA2D
100
AcDbCircle
 62
7
  6
_SOLID
370
9
 10
3.11599016189575
 20
0.19963575899601
 40
0.023624999448657
100
AcDbArc
 50
180
 51
265
  0
LINE
  5
12F
100
AcDbEntity
  8
SEMA2D
100
AcDbLine
 62
7
  6
_SOLID
370
9
 10
3.09236526489258
 20
0.704096436500549
 11
3.14350008964539
 21
0.704096436500549
  0
LINE
  5
130
100
AcDbEntity
  8
SEMA2D
100
AcDbLine
 62
7
  6
_SOLID
370
9
 10
3.09236526489258
 20
0.704096436500549
 11
3.09236526489258
 21
0.711096405982971
  0
LINE
  5
131
100
AcDbEntity
  8
SEMA2D
100
AcDbLine
 62
7
  6
_SOLID
370
9
 10
3.09236526489258
 20
0.704096436500549
 11
3.09236526489258
 21
0.697096407413483
  0
LINE
  5
132
100
AcDbEntity
  8
SEMA2D
100
AcDbLine
 62
7
  6
_SOLID
370
9
 10
3.09236526489258
 20
0.704096436500549
 11
3.09842729568481
 21
0.70759642124176
  0
LINE
  5
133
100
AcDbEntity
  8
SEMA2D
100
AcDbLine
 62
7
  6
_SOLID
370
9
 10
3.09236526489258
 20
0.704096436500549
 11
3.08630299568176
 21
0.700596451759338
  0
LINE
  5
134
100
AcDbEntity
  8
SEMA2D
100
AcDbLine
 62
7
  6
_DOT
370
9
 10
3.09236526489258
 20
0.65409642457962
 11
3.09236526489258
 21
0.704096436500549
  0
LINE
  5
135
100
AcDbEntity
  8
SEMA2D
100
AcDbLine
 62
7
  6
_DOT
370
9
 10
3.09236526489258
 20
0.65409642457962
 11
3.09236526489258
 21
0.65409642457962
  0
MTEXT
  5
136
100
AcDbEntity
  8
SEMATEXT
100
AcDbMText
 62
7
 10
3.11365699768066
 20
0.709021985530853
 40
0.00800000037997961
 71
7
  1
{\fArial Narrow;51}
  7
STANDARD
 73
2
  0
LINE
  5
137
100
AcDbEntity
  8
SEMA2D
100
AcDbLine
 62
7
  6
_SOLID
370
9
 10
3.14350008964539
 20
0.704096436500549
 11
3.14350008964539
 21
0.711096405982971
  0
LINE
  5
138
100
AcDbEntity
  8
SEMA2D
100
AcDbLine
 62
7
  6
_SOLID
370
9
 10
3.14350008964539
 20
0.704096436500549
 11
3.14350008964539
 21
0.697096407413483
  0
LINE
  5
139
100
AcDbEntity
  8
SEMA2D
100
AcDbLine
 62
7
  6
_SOLID
370
9
 10
3.14350008964539
 20
0.704096436500549
 11
3.14956212043762
 21
0.70759642124176
  0
LINE
  5
13A
100
AcDbEntity
  8
SEMA2D
100
AcDbLine
 62
7
  6
_SOLID
370
9
 10
3.14350008964539
 20
0.704096436500549
 11
3.13743782043457
 21
0.700596451759338
  0
LINE
  5
13B
100
AcDbEntity
  8
SEMA2D
100
AcDbLine
 62
7
  6
_DOT
370
9
 10
3.14350008964539
 20
0.65409642457962
 11
3.14350008964539
 21
0.704096436500549
  0
LINE
  5
13C
100
AcDbEntity
  8
SEMA2D
100
AcDbLine
 62
7
  6
_DOT
370
9
 10
3.14350008964539
 20
0.65409642457962
 11
3.14350008964539
 21
0.65409642457962
  0
LINE
  5
13D
100
AcDbEntity
  8
SEMA2D
100
AcDbLine
 62
7
  6
_SOLID
370
9
 10
3.09236526489258
 20
0.125176429748535
 11
3.14436531066895
 21
0.125176429748535
  0
LINE
  5
13E
100
AcDbEntity
  8
SEMA2D
100
AcDbLine
 62
7
  6
_SOLID
370
9
 10
3.09236526489258
 20
0.125176429748535
 11
3.09236526489258
 21
0.132176429033279
  0
LINE
  5
13F
100
AcDbEntity
  8
SEMA2D
100
AcDbLine
 62
7
  6
_SOLID
370
9
 10
3.09236526489258
 20
0.125176429748535
 11
3.09236526489258
 21
0.11817642301321
  0
LINE
  5
140
100
AcDbEntity
  8
SEMA2D
100
AcDbLine
 62
7
  6
_SOLID
370
9
 10
3.09236526489258
 20
0.125176429748535
 11
3.09842729568481
 21
0.128676429390907
  0
LINE
  5
141
100
AcDbEntity
  8
SEMA2D
100
AcDbLine
 62
7
  6
_SOLID
370
9
 10
3.09236526489258
 20
0.125176429748535
 11
3.08630299568176
 21
0.121676422655582
  0
LINE
  5
142
100
AcDbEntity
  8
SEMA2D
100
AcDbLine
 62
7
  6
_DOT
370
9
 10
3.09236526489258
 20
0.175176426768303
 11
3.09236526489258
 21
0.125176429748535
  0
LINE
  5
143
100
AcDbEntity
  8
SEMA2D
100
AcDbLine
 62
7
  6
_DOT
370
9
 10
3.09236526489258
 20
0.175176426768303
 11
3.09236526489258
 21
0.175176426768303
  0
MTEXT
  5
144
100
AcDbEntity
  8
SEMATEXT
100
AcDbMText
 62
7
 10
3.11408948898315
 20
0.130102008581162
 40
0.00800000037997961
 71
7
  1
{\fArial Narrow;52}
  7
STANDARD
 73
2
  0
LINE
  5
145
100
AcDbEntity
  8
SEMA2D
100
AcDbLine
 62
7
  6
_SOLID
370
9
 10
3.14436531066895
 20
0.125176429748535
 11
3.14436531066895
 21
0.132176429033279
  0
LINE
  5
146
100
AcDbEntity
  8
SEMA2D
100
AcDbLine
 62
7
  6
_SOLID
370
9
 10
3.14436531066895
 20
0.125176429748535
 11
3.14436531066895
 21
0.11817642301321
  0
LINE
  5
147
100
AcDbEntity
  8
SEMA2D
100
AcDbLine
 62
7
  6
_SOLID
370
9
 10
3.14436531066895
 20
0.125176429748535
 11
3.15042734146118
 21
0.128676429390907
  0
LINE
  5
148
100
AcDbEntity
  8
SEMA2D
100
AcDbLine
 62
7
  6
_SOLID
370
9
 10
3.14436531066895
 20
0.125176429748535
 11
3.13830304145813
 21
0.121676422655582
  0
LINE
  5
149
100
AcDbEntity
  8
SEMA2D
100
AcDbLine
 62
7
  6
_DOT
370
9
 10
3.14436531066895
 20
0.175176426768303
 11
3.14436531066895
 21
0.125176429748535
  0
LINE
  5
14A
100
AcDbEntity
  8
SEMA2D
100
AcDbLine
 62
7
  6
_DOT
370
9
 10
3.14436531066895
 20
0.175176426768303
 11
3.14436531066895
 21
0.175176426768303
  0
LINE
  5
14B
100
AcDbEntity
  8
SEMA2D
100
AcDbLine
 62
7
  6
_SOLID
370
9
 10
3.09236526489258
 20
0.0751764252781868
 11
3.23236513137817
 21
0.0751764252781868
  0
LINE
  5
14C
100
AcDbEntity
  8
SEMA2D
100
AcDbLine
 62
7
  6
_SOLID
370
9
 10
3.09236526489258
 20
0.0751764252781868
 11
3.09236526489258
 21
0.0821764245629311
  0
LINE
  5
14D
100
AcDbEntity
  8
SEMA2D
100
AcDbLine
 62
7
  6
_SOLID
370
9
 10
3.09236526489258
 20
0.0751764252781868
 11
3.09236526489258
 21
0.0681764259934425
  0
LINE
  5
14E
100
AcDbEntity
  8
SEMA2D
100
AcDbLine
 62
7
  6
_SOLID
370
9
 10
3.09236526489258
 20
0.0751764252781868
 11
3.09842729568481
 21
0.0786764249205589
  0
LINE
  5
14F
100
AcDbEntity
  8
SEMA2D
100
AcDbLine
 62
7
  6
_SOLID
370
9
 10
3.09236526489258
 20
0.0751764252781868
 11
3.08630299568176
 21
0.0716764256358147
  0
LINE
  5
150
100
AcDbEntity
  8
SEMA2D
100
AcDbLine
 62
7
  6
_DOT
370
9
 10
3.09236526489258
 20
0.125176429748535
 11
3.09236526489258
 21
0.0751764252781868
  0
LINE
  5
151
100
AcDbEntity
  8
SEMA2D
100
AcDbLine
 62
7
  6
_DOT
370
9
 10
3.09236526489258
 20
0.125176429748535
 11
3.09236526489258
 21
0.125176429748535
  0
MTEXT
  5
152
100
AcDbEntity
  8
SEMATEXT
100
AcDbMText
 62
7
 10
3.15595173835754
 20
0.0801020115613937
 40
0.00800000037997961
 71
7
  1
{\fArial Narrow;140}
  7
STANDARD
 73
2
  0
LINE
  5
153
100
AcDbEntity
  8
SEMA2D
100
AcDbLine
 62
7
  6
_SOLID
370
9
 10
3.23236513137817
 20
0.0751764252781868
 11
3.23236513137817
 21
0.0821764245629311
  0
LINE
  5
154
100
AcDbEntity
  8
SEMA2D
100
AcDbLine
 62
7
  6
_SOLID
370
9
 10
3.23236513137817
 20
0.0751764252781868
 11
3.23236513137817
 21
0.0681764259934425
  0
LINE
  5
155
100
AcDbEntity
  8
SEMA2D
100
AcDbLine
 62
7
  6
_SOLID
370
9
 10
3.23236513137817
 20
0.0751764252781868
 11
3.23842740058899
 21
0.0786764249205589
  0
LINE
  5
156
100
AcDbEntity
  8
SEMA2D
100
AcDbLine
 62
7
  6
_SOLID
370
9
 10
3.23236513137817
 20
0.0751764252781868
 11
3.22630310058594
 21
0.0716764256358147
  0
LINE
  5
157
100
AcDbEntity
  8
SEMA2D
100
AcDbLine
 62
7
  6
_DOT
370
9
 10
3.23236513137817
 20
0.125176429748535
 11
3.23236513137817
 21
0.0751764252781868
  0
LINE
  5
158
100
AcDbEntity
  8
SEMA2D
100
AcDbLine
 62
7
  6
_DOT
370
9
 10
3.23236513137817
 20
0.125176429748535
 11
3.23236513137817
 21
0.125176429748535
  0
LINE
  5
159
100
AcDbEntity
  8
SEMA2D
100
AcDbLine
 62
7
  6
_SOLID
370
9
 10
3.670649766922
 20
0.125176429748535
 11
3.41464996337891
 21
0.125176429748535
  0
LINE
  5
15A
100
AcDbEntity
  8
SEMA2D
100
AcDbLine
 62
7
  6
_SOLID
370
9
 10
3.670649766922
 20
0.125176429748535
 11
3.670649766922
 21
0.11817642301321
  0
LINE
  5
15B
100
AcDbEntity
  8
SEMA2D
100
AcDbLine
 62
7
  6
_SOLID
370
9
 10
3.670649766922
 20
0.125176429748535
 11
3.670649766922
 21
0.132176429033279
  0
LINE
  5
15C
100
AcDbEntity
  8
SEMA2D
100
AcDbLine
 62
7
  6
_SOLID
370
9
 10
3.670649766922
 20
0.125176429748535
 11
3.66458773612976
 21
0.121676422655582
  0
LINE
  5
15D
100
AcDbEntity
  8
SEMA2D
100
AcDbLine
 62
7
  6
_SOLID
370
9
 10
3.670649766922
 20
0.125176429748535
 11
3.67671203613281
 21
0.128676429390907
  0
LINE
  5
15E
100
AcDbEntity
  8
SEMA2D
100
AcDbLine
 62
7
  6
_DOT
370
9
 10
3.670649766922
 20
0.175176426768303
 11
3.670649766922
 21
0.125176429748535
  0
LINE
  5
15F
100
AcDbEntity
  8
SEMA2D
100
AcDbLine
 62
7
  6
_DOT
370
9
 10
3.670649766922
 20
0.175176426768303
 11
3.670649766922
 21
0.175176426768303
  0
MTEXT
  5
160
100
AcDbEntity
  8
SEMATEXT
100
AcDbMText
 62
7
 10
3.53623628616333
 20
0.130102008581162
 40
0.00800000037997961
 50
-6.21202105055042E-15
 71
7
  1
{\fArial Narrow;256}
  7
STANDARD
 73
2
  0
LINE
  5
161
100
AcDbEntity
  8
SEMA2D
100
AcDbLine
 62
7
  6
_SOLID
370
9
 10
3.41464996337891
 20
0.125176429748535
 11
3.41464996337891
 21
0.11817642301321
  0
LINE
  5
162
100
AcDbEntity
  8
SEMA2D
100
AcDbLine
 62
7
  6
_SOLID
370
9
 10
3.41464996337891
 20
0.125176429748535
 11
3.41464996337891
 21
0.132176429033279
  0
LINE
  5
163
100
AcDbEntity
  8
SEMA2D
100
AcDbLine
 62
7
  6
_SOLID
370
9
 10
3.41464996337891
 20
0.125176429748535
 11
3.40858769416809
 21
0.121676422655582
  0
LINE
  5
164
100
AcDbEntity
  8
SEMA2D
100
AcDbLine
 62
7
  6
_SOLID
370
9
 10
3.41464996337891
 20
0.125176429748535
 11
3.42071199417114
 21
0.128676429390907
  0
LINE
  5
165
100
AcDbEntity
  8
SEMA2D
100
AcDbLine
 62
7
  6
_DOT
370
9
 10
3.41464996337891
 20
0.175176426768303
 11
3.41464996337891
 21
0.125176429748535
  0
LINE
  5
166
100
AcDbEntity
  8
SEMA2D
100
AcDbLine
 62
7
  6
_DOT
370
9
 10
3.41464996337891
 20
0.175176426768303
 11
3.41464996337891
 21
0.175176426768303
  0
LINE
  5
167
100
AcDbEntity
  8
SEMA2D
100
AcDbLine
 62
7
  6
_SOLID
370
9
 10
3.72054553031921
 20
0.175176426768303
 11
3.72054553031921
 21
0.604096412658691
  0
LINE
  5
168
100
AcDbEntity
  8
SEMA2D
100
AcDbLine
 62
7
  6
_SOLID
370
9
 10
3.72054553031921
 20
0.175176426768303
 11
3.71354556083679
 21
0.175176426768303
  0
LINE
  5
169
100
AcDbEntity
  8
SEMA2D
100
AcDbLine
 62
7
  6
_SOLID
370
9
 10
3.72054553031921
 20
0.175176426768303
 11
3.72754549980164
 21
0.175176426768303
  0
LINE
  5
16A
100
AcDbEntity
  8
SEMA2D
100
AcDbLine
 62
7
  6
_SOLID
370
9
 10
3.72054553031921
 20
0.175176426768303
 11
3.717045545578
 21
0.181238606572151
  0
LINE
  5
16B
100
AcDbEntity
  8
SEMA2D
100
AcDbLine
 62
7
  6
_SOLID
370
9
 10
3.72054553031921
 20
0.175176426768303
 11
3.72404551506042
 21
0.169114246964455
  0
LINE
  5
16C
100
AcDbEntity
  8
SEMA2D
100
AcDbLine
 62
7
  6
_DOT
370
9
 10
3.67054557800293
 20
0.175176426768303
 11
3.72054553031921
 21
0.175176426768303
  0
LINE
  5
16D
100
AcDbEntity
  8
SEMA2D
100
AcDbLine
 62
7
  6
_DOT
370
9
 10
3.67054557800293
 20
0.175176426768303
 11
3.67054557800293
 21
0.175176426768303
  0
MTEXT
  5
16E
100
AcDbEntity
  8
SEMATEXT
100
AcDbMText
 62
7
 10
3.71562004089355
 20
0.381940186023712
 40
0.00800000037997961
 50
90
 71
7
  1
{\fArial Narrow;429}
  7
STANDARD
 73
2
  0
LINE
  5
16F
100
AcDbEntity
  8
SEMA2D
100
AcDbLine
 62
7
  6
_SOLID
370
9
 10
3.72054553031921
 20
0.604096412658691
 11
3.71354556083679
 21
0.604096412658691
  0
LINE
  5
170
100
AcDbEntity
  8
SEMA2D
100
AcDbLine
 62
7
  6
_SOLID
370
9
 10
3.72054553031921
 20
0.604096412658691
 11
3.72754549980164
 21
0.604096412658691
  0
LINE
  5
171
100
AcDbEntity
  8
SEMA2D
100
AcDbLine
 62
7
  6
_SOLID
370
9
 10
3.72054553031921
 20
0.604096412658691
 11
3.717045545578
 21
0.610158622264862
  0
LINE
  5
172
100
AcDbEntity
  8
SEMA2D
100
AcDbLine
 62
7
  6
_SOLID
370
9
 10
3.72054553031921
 20
0.604096412658691
 11
3.72404551506042
 21
0.598034262657166
  0
LINE
  5
173
100
AcDbEntity
  8
SEMA2D
100
AcDbLine
 62
7
  6
_DOT
370
9
 10
3.67054557800293
 20
0.604096412658691
 11
3.72054553031921
 21
0.604096412658691
  0
LINE
  5
174
100
AcDbEntity
  8
SEMA2D
100
AcDbLine
 62
7
  6
_DOT
370
9
 10
3.67054557800293
 20
0.604096412658691
 11
3.67054557800293
 21
0.604096412658691
  0
LINE
  5
175
100
AcDbEntity
  8
SEMA2D
100
AcDbLine
 62
7
  6
_SOLID
370
9
 10
3.41558218002319
 20
0.704096436500549
 11
3.6307897567749
 21
0.704096436500549
  0
LINE
  5
176
100
AcDbEntity
  8
SEMA2D
100
AcDbLine
 62
7
  6
_SOLID
370
9
 10
3.41558218002319
 20
0.704096436500549
 11
3.41558218002319
 21
0.711096405982971
  0
LINE
  5
177
100
AcDbEntity
  8
SEMA2D
100
AcDbLine
 62
7
  6
_SOLID
370
9
 10
3.41558218002319
 20
0.704096436500549
 11
3.41558218002319
 21
0.697096407413483
  0
LINE
  5
178
100
AcDbEntity
  8
SEMA2D
100
AcDbLine
 62
7
  6
_SOLID
370
9
 10
3.41558218002319
 20
0.704096436500549
 11
3.42164421081543
 21
0.70759642124176
  0
LINE
  5
179
100
AcDbEntity
  8
SEMA2D
100
AcDbLine
 62
7
  6
_SOLID
370
9
 10
3.41558218002319
 20
0.704096436500549
 11
3.40951991081238
 21
0.700596451759338
  0
LINE
  5
17A
100
AcDbEntity
  8
SEMA2D
100
AcDbLine
 62
7
  6
_DOT
370
9
 10
3.41558218002319
 20
0.753658354282379
 11
3.41558218002319
 21
0.704096436500549
  0
LINE
  5
17B
100
AcDbEntity
  8
SEMA2D
100
AcDbLine
 62
7
  6
_DOT
370
9
 10
3.41558218002319
 20
0.753658354282379
 11
3.41558218002319
 21
0.753658354282379
  0
MTEXT
  5
17C
100
AcDbEntity
  8
SEMATEXT
100
AcDbMText
 62
7
 10
3.43391013145447
 20
0.709021985530853
 40
0.00800000037997961
 71
7
  1
{\fArial Narrow;45}
  7
STANDARD
 73
2
  0
LINE
  5
17D
100
AcDbEntity
  8
SEMA2D
100
AcDbLine
 62
7
  6
_SOLID
370
9
 10
3.46078968048096
 20
0.704096436500549
 11
3.46078968048096
 21
0.711096405982971
  0
LINE
  5
17E
100
AcDbEntity
  8
SEMA2D
100
AcDbLine
 62
7
  6
_SOLID
370
9
 10
3.46078968048096
 20
0.704096436500549
 11
3.46078968048096
 21
0.697096407413483
  0
LINE
  5
17F
100
AcDbEntity
  8
SEMA2D
100
AcDbLine
 62
7
  6
_SOLID
370
9
 10
3.46078968048096
 20
0.704096436500549
 11
3.46685194969177
 21
0.70759642124176
  0
LINE
  5
180
100
AcDbEntity
  8
SEMA2D
100
AcDbLine
 62
7
  6
_SOLID
370
9
 10
3.46078968048096
 20
0.704096436500549
 11
3.45472741127014
 21
0.700596451759338
  0
LINE
  5
181
100
AcDbEntity
  8
SEMA2D
100
AcDbLine
 62
7
  6
_DOT
370
9
 10
3.46078968048096
 20
0.753658354282379
 11
3.46078968048096
 21
0.704096436500549
  0
LINE
  5
182
100
AcDbEntity
  8
SEMA2D
100
AcDbLine
 62
7
  6
_DOT
370
9
 10
3.46078968048096
 20
0.753658354282379
 11
3.46078968048096
 21
0.753658354282379
  0
MTEXT
  5
183
100
AcDbEntity
  8
SEMATEXT
100
AcDbMText
 62
7
 10
3.5393762588501
 20
0.709021985530853
 40
0.00800000037997961
 71
7
  1
{\fArial Narrow;170}
  7
STANDARD
 73
2
  0
LINE
  5
184
100
AcDbEntity
  8
SEMA2D
100
AcDbLine
 62
7
  6
_SOLID
370
9
 10
3.6307897567749
 20
0.704096436500549
 11
3.6307897567749
 21
0.711096405982971
  0
LINE
  5
185
100
AcDbEntity
  8
SEMA2D
100
AcDbLine
 62
7
  6
_SOLID
370
9
 10
3.6307897567749
 20
0.704096436500549
 11
3.6307897567749
 21
0.697096407413483
  0
LINE
  5
186
100
AcDbEntity
  8
SEMA2D
100
AcDbLine
 62
7
  6
_SOLID
370
9
 10
3.6307897567749
 20
0.704096436500549
 11
3.63685178756714
 21
0.70759642124176
  0
LINE
  5
187
100
AcDbEntity
  8
SEMA2D
100
AcDbLine
 62
7
  6
_SOLID
370
9
 10
3.6307897567749
 20
0.704096436500549
 11
3.62472748756409
 21
0.700596451759338
  0
LINE
  5
188
100
AcDbEntity
  8
SEMA2D
100
AcDbLine
 62
7
  6
_DOT
370
9
 10
3.6307897567749
 20
0.753658354282379
 11
3.6307897567749
 21
0.704096436500549
  0
LINE
  5
189
100
AcDbEntity
  8
SEMA2D
100
AcDbLine
 62
7
  6
_DOT
370
9
 10
3.6307897567749
 20
0.704096436500549
 11
3.6307897567749
 21
0.753658354282379
  0
ARC
  5
18A
100
AcDbEntity
  8
SEMA2D
100
AcDbCircle
 62
7
  6
_SOLID
370
9
 10
3.72609877586365
 20
0.298368871212006
 40
0.204753026366234
100
AcDbArc
 50
205.430435180664
 51
208.829559326172
  0
ARC
  5
18B
100
AcDbEntity
  8
SEMA2D
100
AcDbCircle
 62
7
  6
_SOLID
370
9
 10
3.64702486991882
 20
0.58708643913269
 40
0.00377999991178513
100
AcDbArc
 50
180
 51
270
  0
ARC
  5
18C
100
AcDbEntity
  8
SEMA2D
100
AcDbCircle
 62
7
  6
_SOLID
370
9
 10
3.35627102851868
 20
0.298368871212006
 40
0.204753026366234
100
AcDbArc
 50
331.170440673828
 51
334.569549560547
  0
ARC
  5
18D
100
AcDbEntity
  8
SEMA2D
100
AcDbCircle
 62
7
  6
_SOLID
370
9
 10
3.72609877586365
 20
0.498598843812943
 40
0.19026605784893
100
AcDbArc
 50
193.622055053711
 51
220.351470947266
  0
ARC
  5
18E
100
AcDbEntity
  8
SEMA2D
100
AcDbCircle
 62
7
  6
_SOLID
370
9
 10
3.72609877586365
 20
0.498598843812943
 40
0.192938923835754
100
AcDbArc
 50
196.583114624023
 51
219.680419921875
  0
ARC
  5
18F
100
AcDbEntity
  8
SEMA2D
100
AcDbCircle
 62
7
  6
_SOLID
370
9
 10
3.35627102851868
 20
0.498598843812943
 40
0.192938923835754
100
AcDbArc
 50
320.319580078125
 51
343.416870117188
  0
ARC
  5
190
100
AcDbEntity
  8
SEMA2D
100
AcDbCircle
 62
7
  6
_SOLID
370
9
 10
3.35627102851868
 20
0.252213984727859
 40
0.192938923835754
100
AcDbArc
 50
16.5831165313721
 51
39.680419921875
  0
ARC
  5
191
100
AcDbEntity
  8
SEMA2D
100
AcDbCircle
 62
7
  6
_SOLID
370
9
 10
3.35627102851868
 20
0.498598843812943
 40
0.19026605784893
100
AcDbArc
 50
319.648529052734
 51
346.377960205078
  0
ARC
  5
192
100
AcDbEntity
  8
SEMA2D
100
AcDbCircle
 62
7
  6
_SOLID
370
9
 10
3.57047986984253
 20
0.554956436157227
 40
0.00573784811422229
100
AcDbArc
 50
190
 51
350
  0
ARC
  5
193
100
AcDbEntity
  8
SEMA2D
100
AcDbCircle
 62
7
  6
_SOLID
370
9
 10
3.35627102851868
 20
0.498598843812943
 40
0.188999995589256
100
AcDbArc
 50
319.321655273438
 51
348.064422607422
  0
ARC
  5
194
100
AcDbEntity
  8
SEMA2D
100
AcDbCircle
 62
7
  6
_SOLID
370
9
 10
3.72609877586365
 20
0.498598843812943
 40
0.188999995589256
100
AcDbArc
 50
191.935577392578
 51
220.678344726562
  0
ARC
  5
195
100
AcDbEntity
  8
SEMA2D
100
AcDbCircle
 62
7
  6
_SOLID
370
9
 10
3.72609877586365
 20
0.298368871212006
 40
0.188999995589256
100
AcDbArc
 50
191.935577392578
 51
220.678344726562
  0
ARC
  5
196
100
AcDbEntity
  8
SEMA2D
100
AcDbCircle
 62
7
  6
_SOLID
370
9
 10
3.64702486991882
 20
0.58708643913269
 40
0.00391281116753817
100
AcDbArc
 50
180
 51
270
  0
ARC
  5
197
100
AcDbEntity
  8
SEMA2D
100
AcDbCircle
 62
7
  6
_SOLID
370
9
 10
3.35627102851868
 20
0.298368871212006
 40
0.188999995589256
100
AcDbArc
 50
319.321655273438
 51
348.064422607422
  0
ARC
  5
198
100
AcDbEntity
  8
SEMA2D
100
AcDbCircle
 62
7
  6
_SOLID
370
9
 10
3.35627102851868
 20
0.498598843812943
 40
0.19614751636982
100
AcDbArc
 50
321.092864990234
 51
340.515045166016
  0
ARC
  5
199
100
AcDbEntity
  8
SEMA2D
100
AcDbCircle
 62
7
  6
_SOLID
370
9
 10
3.72609877586365
 20
0.498598843812943
 40
0.19614751636982
100
AcDbArc
 50
199.484970092773
 51
218.907150268555
  0
ARC
  5
19A
100
AcDbEntity
  8
SEMA2D
100
AcDbCircle
 62
7
  6
_SOLID
370
9
 10
3.35627102851868
 20
0.252213984727859
 40
0.19614751636982
100
AcDbArc
 50
19.4849681854248
 51
38.9071464538574
  0
ARC
  5
19B
100
AcDbEntity
  8
SEMA2D
100
AcDbCircle
 62
7
  6
_SOLID
370
9
 10
3.57047986984253
 20
0.554956436157227
 40
0.00472499988973141
100
AcDbArc
 50
190
 51
350
  0
ARC
  5
19C
100
AcDbEntity
  8
SEMA2D
100
AcDbCircle
 62
7
  6
_SOLID
370
9
 10
3.72609877586365
 20
0.252213984727859
 40
0.19614751636982
100
AcDbArc
 50
141.092849731445
 51
160.515029907227
  0
ARC
  5
19D
100
AcDbEntity
  8
SEMA2D
100
AcDbCircle
 62
7
  6
_SOLID
370
9
 10
3.72609877586365
 20
0.252213984727859
 40
0.204119995236397
100
AcDbArc
 50
142.876907348633
 51
154.945861816406
  0
ARC
  5
19E
100
AcDbEntity
  8
SEMA2D
100
AcDbCircle
 62
7
  6
_SOLID
370
9
 10
3.35627102851868
 20
0.252213984727859
 40
0.19026605784893
100
AcDbArc
 50
13.6220483779907
 51
40.3514633178711
  0
ARC
  5
19F
100
AcDbEntity
  8
SEMA2D
100
AcDbCircle
 62
7
  6
_SOLID
370
9
 10
3.35627102851868
 20
0.252213984727859
 40
0.204119995236397
100
AcDbArc
 50
25.0541324615479
 51
37.1230964660645
  0
ARC
  5
1A0
100
AcDbEntity
  8
SEMA2D
100
AcDbCircle
 62
7
  6
_SOLID
370
9
 10
3.72609877586365
 20
0.498598843812943
 40
0.204119995236397
100
AcDbArc
 50
205.054138183594
 51
217.123092651367
  0
ARC
  5
1A1
100
AcDbEntity
  8
SEMA2D
100
AcDbCircle
 62
7
  6
_SOLID
370
9
 10
3.35627102851868
 20
0.498598843812943
 40
0.204119995236397
100
AcDbArc
 50
322.876892089844
 51
334.945861816406
  0
ARC
  5
1A2
100
AcDbEntity
  8
SEMA2D
100
AcDbCircle
 62
7
  6
_SOLID
370
9
 10
3.58748984336853
 20
0.475576430559158
 40
0.0264599993824959
100
AcDbArc
 50
0
 51
77.3786849975586
  0
ARC
  5
1A3
100
AcDbEntity
  8
SEMA2D
100
AcDbCircle
 62
7
  6
_SOLID
370
9
 10
3.35627102851868
 20
0.298368871212006
 40
0.204119995236397
100
AcDbArc
 50
327.713623046875
 51
334.945861816406
  0
ARC
  5
1A4
100
AcDbEntity
  8
SEMA2D
100
AcDbCircle
 62
7
  6
_SOLID
370
9
 10
3.49865984916687
 20
0.475576430559158
 40
0.0264599993824959
100
AcDbArc
 50
102.621315002441
 51
180
  0
ARC
  5
1A5
100
AcDbEntity
  8
SEMA2D
100
AcDbCircle
 62
7
  6
_SOLID
370
9
 10
3.35627102851868
 20
0.498598843812943
 40
0.204753026366234
100
AcDbArc
 50
323.010864257812
 51
334.569549560547
  0
ARC
  5
1A6
100
AcDbEntity
  8
SEMA2D
100
AcDbCircle
 62
7
  6
_SOLID
370
9
 10
3.72609877586365
 20
0.298368871212006
 40
0.204119995236397
100
AcDbArc
 50
205.054138183594
 51
212.286392211914
  0
ARC
  5
1A7
100
AcDbEntity
  8
SEMA2D
100
AcDbCircle
 62
7
  6
_SOLID
370
9
 10
3.35627102851868
 20
0.298368871212006
 40
0.19606925547123
100
AcDbArc
 50
326.214569091797
 51
340.579772949219
  0
ARC
  5
1A8
100
AcDbEntity
  8
SEMA2D
100
AcDbCircle
 62
7
  6
_SOLID
370
9
 10
3.72609877586365
 20
0.298368871212006
 40
0.19026605784893
100
AcDbArc
 50
193.622055053711
 51
220.351470947266
  0
ARC
  5
1A9
100
AcDbEntity
  8
SEMA2D
100
AcDbCircle
 62
7
  6
_SOLID
370
9
 10
3.72609877586365
 20
0.298368871212006
 40
0.192854300141335
100
AcDbArc
 50
196.498474121094
 51
219.701278686523
  0
ARC
  5
1AA
100
AcDbEntity
  8
SEMA2D
100
AcDbCircle
 62
7
  6
_SOLID
370
9
 10
3.35627102851868
 20
0.298368871212006
 40
0.192854300141335
100
AcDbArc
 50
320.298706054687
 51
343.501525878906
  0
ARC
  5
1AB
100
AcDbEntity
  8
SEMA2D
100
AcDbCircle
 62
7
  6
_SOLID
370
9
 10
3.72609877586365
 20
0.298368871212006
 40
0.19606925547123
100
AcDbArc
 50
199.420227050781
 51
213.785415649414
  0
ARC
  5
1AC
100
AcDbEntity
  8
SEMA2D
100
AcDbCircle
 62
7
  6
_SOLID
370
9
 10
3.35627102851868
 20
0.298368871212006
 40
0.19026605784893
100
AcDbArc
 50
319.648529052734
 51
346.377960205078
  0
ARC
  5
1AD
100
AcDbEntity
  8
SEMA2D
100
AcDbCircle
 62
7
  6
_SOLID
370
9
 10
3.72609877586365
 20
0.252213984727859
 40
0.188999995589256
100
AcDbArc
 50
139.321655273438
 51
168.064422607422
  0
ARC
  5
1AE
100
AcDbEntity
  8
SEMA2D
100
AcDbCircle
 62
7
  6
_SOLID
370
9
 10
3.35627102851868
 20
0.252213984727859
 40
0.188999995589256
100
AcDbArc
 50
11.9355821609497
 51
40.6783447265625
  0
ARC
  5
1AF
100
AcDbEntity
  8
SEMA2D
100
AcDbCircle
 62
7
  6
_SOLID
370
9
 10
3.72609877586365
 20
0.252213984727859
 40
0.204753026366234
100
AcDbArc
 50
143.010864257812
 51
154.569564819336
  0
ARC
  5
1B0
100
AcDbEntity
  8
SEMA2D
100
AcDbCircle
 62
7
  6
_SOLID
370
9
 10
3.35627102851868
 20
0.252213984727859
 40
0.204753026366234
100
AcDbArc
 50
25.4304351806641
 51
36.9891319274902
  0
ARC
  5
1B1
100
AcDbEntity
  8
SEMA2D
100
AcDbCircle
 62
7
  6
_SOLID
370
9
 10
3.72609877586365
 20
0.498598843812943
 40
0.204753026366234
100
AcDbArc
 50
205.430435180664
 51
216.989135742187
  0
ARC
  5
1B2
100
AcDbEntity
  8
SEMA2D
100
AcDbCircle
 62
7
  6
_SOLID
370
9
 10
3.72609877586365
 20
0.252213984727859
 40
0.19026605784893
100
AcDbArc
 50
139.648529052734
 51
166.377944946289
  0
ARC
  5
1B3
100
AcDbEntity
  8
SEMA2D
100
AcDbCircle
 62
7
  6
_SOLID
370
9
 10
3.72609877586365
 20
0.252213984727859
 40
0.192938923835754
100
AcDbArc
 50
140.319580078125
 51
163.416885375977
  0
LINE
  5
1B4
100
AcDbEntity
  8
SEMA2D
100
AcDbLine
 62
7
  6
_SOLID
370
9
 10
3.48339796066284
 20
0.565595507621765
 11
3.47656893730164
 21
0.553767323493958
  0
LINE
  5
1B5
100
AcDbEntity
  8
SEMA2D
100
AcDbLine
 62
7
  6
_SOLID
370
9
 10
3.47888326644897
 20
0.562988936901093
 11
3.47506403923035
 21
0.55637389421463
  0
LINE
  5
1B6
100
AcDbEntity
  8
SEMA2D
100
AcDbLine
 62
7
  6
_SOLID
370
9
 10
3.50478410720825
 20
0.55181610584259
 11
3.50858235359192
 21
0.555614292621613
  0
LINE
  5
1B7
100
AcDbEntity
  8
SEMA2D
100
AcDbLine
 62
7
  6
_SOLID
370
9
 10
3.40800261497498
 20
0.17622447013855
 11
3.40794515609741
 21
0.175176426768303
  0
LINE
  5
1B8
100
AcDbEntity
  8
SEMA2D
100
AcDbLine
 62
7
  6
_SOLID
370
9
 10
3.47415781021118
 20
0.519824266433716
 11
3.47035956382751
 21
0.516026079654694
  0
LINE
  5
1B9
100
AcDbEntity
  8
SEMA2D
100
AcDbLine
 62
7
  6
_SOLID
370
9
 10
3.43159317970276
 20
0.555614292621613
 11
3.43178343772888
 21
0.55637389421463
  0
LINE
  5
1BA
100
AcDbEntity
  8
SEMA2D
100
AcDbLine
 62
7
  6
_SOLID
370
9
 10
3.670649766922
 20
0.187461420893669
 11
3.67005395889282
 21
0.187558457255363
  0
LINE
  5
1BB
100
AcDbEntity
  8
SEMA2D
100
AcDbLine
 62
7
  6
_SOLID
370
9
 10
3.491623878479
 20
0.55637389421463
 11
3.48710918426514
 21
0.553767323493958
  0
LINE
  5
1BC
100
AcDbEntity
  8
SEMA2D
100
AcDbLine
 62
7
  6
_SOLID
370
9
 10
3.40800261497498
 20
0.17622447013855
 11
3.40363836288452
 21
0.194179370999336
  0
LINE
  5
1BD
100
AcDbEntity
  8
SEMA2D
100
AcDbLine
 62
7
  6
_SOLID
370
9
 10
3.40931582450867
 20
0.179277718067169
 11
3.40499591827393
 21
0.197637960314751
  0
LINE
  5
1BE
100
AcDbEntity
  8
SEMA2D
100
AcDbLine
 62
7
  6
_SOLID
370
9
 10
3.40837359428406
 20
0.179329380393028
 11
3.40405368804932
 21
0.19768962264061
  0
LINE
  5
1BF
100
AcDbEntity
  8
SEMA2D
100
AcDbLine
 62
7
  6
_SOLID
370
9
 10
3.43285775184631
 20
0.604096412658691
 11
3.43280839920044
 21
0.603196144104004
  0
LINE
  5
1C0
100
AcDbEntity
  8
SEMA2D
100
AcDbLine
 62
7
  6
_SOLID
370
9
 10
3.49544310569763
 20
0.562988936901093
 11
3.491623878479
 21
0.55637389421463
  0
LINE
  5
1C1
100
AcDbEntity
  8
SEMA2D
100
AcDbLine
 62
7
  6
_SOLID
370
9
 10
3.43305850028992
 20
0.604096412658691
 11
3.43283653259277
 21
0.600046813488007
  0
LINE
  5
1C2
100
AcDbEntity
  8
SEMA2D
100
AcDbLine
 62
7
  6
_SOLID
370
9
 10
3.4294228553772
 20
0.516026079654694
 11
3.43159317970276
 21
0.555614292621613
  0
LINE
  5
1C3
100
AcDbEntity
  8
SEMA2D
100
AcDbLine
 62
7
  6
_SOLID
370
9
 10
3.43400359153748
 20
0.604096412658691
 11
3.43377876281738
 21
0.599995136260986
  0
LINE
  5
1C4
100
AcDbEntity
  8
SEMA2D
100
AcDbLine
 62
7
  6
_SOLID
370
9
 10
3.49393820762634
 20
0.565595507621765
 11
3.48710918426514
 21
0.553767323493958
  0
LINE
  5
1C5
100
AcDbEntity
  8
SEMA2D
100
AcDbLine
 62
7
  6
_SOLID
370
9
 10
3.40909099578857
 20
0.175176426768303
 11
3.40931582450867
 21
0.179277718067169
  0
LINE
  5
1C6
100
AcDbEntity
  8
SEMA2D
100
AcDbLine
 62
7
  6
_SOLID
370
9
 10
3.40814590454102
 20
0.175176426768303
 11
3.40837359428406
 21
0.179329380393028
  0
LINE
  5
1C7
100
AcDbEntity
  8
SEMA2D
100
AcDbLine
 62
7
  6
_SOLID
370
9
 10
3.40375971794128
 20
0.194175690412521
 11
3.42773771286011
 21
0.588576436042786
  0
LINE
  5
1C8
100
AcDbEntity
  8
SEMA2D
100
AcDbLine
 62
7
  6
_SOLID
370
9
 10
3.40511727333069
 20
0.197634279727936
 11
3.42868518829346
 21
0.585290014743805
  0
LINE
  5
1C9
100
AcDbEntity
  8
SEMA2D
100
AcDbLine
 62
7
  6
_SOLID
370
9
 10
3.40417504310608
 20
0.197685942053795
 11
3.42774295806885
 21
0.585341691970825
  0
LINE
  5
1CA
100
AcDbEntity
  8
SEMA2D
100
AcDbLine
 62
7
  6
_SOLID
370
9
 10
3.52883172035217
 20
0.189337864518166
 11
3.51922917366028
 21
0.189337864518166
  0
LINE
  5
1CB
100
AcDbEntity
  8
SEMA2D
100
AcDbLine
 62
7
  6
_SOLID
370
9
 10
3.56314063072205
 20
0.189337864518166
 11
3.55353808403015
 21
0.189337864518166
  0
LINE
  5
1CC
100
AcDbEntity
  8
SEMA2D
100
AcDbLine
 62
7
  6
_SOLID
370
9
 10
3.40931582450867
 20
0.179277718067169
 11
3.40837359428406
 21
0.179329380393028
  0
LINE
  5
1CD
100
AcDbEntity
  8
SEMA2D
100
AcDbLine
 62
7
  6
_SOLID
370
9
 10
3.40794515609741
 20
0.175176426768303
 11
3.66653943061829
 21
0.175176426768303
  0
LINE
  5
1CE
100
AcDbEntity
  8
SEMA2D
100
AcDbLine
 62
7
  6
_SOLID
370
9
 10
3.42868518829346
 20
0.585290014743805
 11
3.43377876281738
 21
0.599995136260986
  0
LINE
  5
1CF
100
AcDbEntity
  8
SEMA2D
100
AcDbLine
 62
7
  6
_SOLID
370
9
 10
3.42774295806885
 20
0.585341691970825
 11
3.43283653259277
 21
0.600046813488007
  0
LINE
  5
1D0
100
AcDbEntity
  8
SEMA2D
100
AcDbLine
 62
7
  6
_SOLID
370
9
 10
3.47888326644897
 20
0.562988936901093
 11
3.48339796066284
 21
0.565595507621765
  0
LINE
  5
1D1
100
AcDbEntity
  8
SEMA2D
100
AcDbLine
 62
7
  6
_SOLID
370
9
 10
3.47137236595154
 20
0.564761400222778
 11
3.47314476966858
 21
0.566533863544464
  0
LINE
  5
1D2
100
AcDbEntity
  8
SEMA2D
100
AcDbLine
 62
7
  6
_SOLID
370
9
 10
3.42773771286011
 20
0.588576436042786
 11
3.43276524543762
 21
0.603094756603241
  0
LINE
  5
1D3
100
AcDbEntity
  8
SEMA2D
100
AcDbLine
 62
7
  6
_SOLID
370
9
 10
3.66958737373352
 20
0.19963575899601
 11
3.6139497756958
 21
0.19963575899601
  0
LINE
  5
1D4
100
AcDbEntity
  8
SEMA2D
100
AcDbLine
 62
7
  6
_SOLID
370
9
 10
3.43877100944519
 20
0.562988936901093
 11
3.44064331054687
 21
0.564761400222778
  0
LINE
  5
1D5
100
AcDbEntity
  8
SEMA2D
100
AcDbLine
 62
7
  6
_SOLID
370
9
 10
3.54672336578369
 20
0.19963575899601
 11
3.53564643859863
 21
0.19963575899601
  0
LINE
  5
1D6
100
AcDbEntity
  8
SEMA2D
100
AcDbLine
 62
7
  6
_SOLID
370
9
 10
3.40499591827393
 20
0.197637960314751
 11
3.40405368804932
 21
0.19768962264061
  0
LINE
  5
1D7
100
AcDbEntity
  8
SEMA2D
100
AcDbLine
 62
7
  6
_SOLID
370
9
 10
3.4721999168396
 20
0.19963575899601
 11
3.41211581230164
 21
0.19963575899601
  0
LINE
  5
1D8
100
AcDbEntity
  8
SEMA2D
100
AcDbLine
 62
7
  6
_SOLID
370
9
 10
3.41222524642944
 20
0.19963276386261
 11
3.42952990531921
 21
0.515266418457031
  0
LINE
  5
1D9
100
AcDbEntity
  8
SEMA2D
100
AcDbLine
 62
7
  6
_SOLID
370
9
 10
3.564537525177
 20
0.555614292621613
 11
3.50858235359192
 21
0.555614292621613
  0
LINE
  5
1DA
100
AcDbEntity
  8
SEMA2D
100
AcDbLine
 62
7
  6
_SOLID
370
9
 10
3.5770947933197
 20
0.555614292621613
 11
3.57642221450806
 21
0.555614292621613
  0
LINE
  5
1DB
100
AcDbEntity
  8
SEMA2D
100
AcDbLine
 62
7
  6
_SOLID
370
9
 10
3.43159317970276
 20
0.555614292621613
 11
3.47035956382751
 21
0.555614292621613
  0
LINE
  5
1DC
100
AcDbEntity
  8
SEMA2D
100
AcDbLine
 62
7
  6
_SOLID
370
9
 10
3.66978669166565
 20
0.555994093418121
 11
3.66403484344482
 21
0.555994093418121
  0
LINE
  5
1DD
100
AcDbEntity
  8
SEMA2D
100
AcDbLine
 62
7
  6
_SOLID
370
9
 10
3.61579012870789
 20
0.555614292621613
 11
3.66157960891724
 21
0.555614292621613
  0
LINE
  5
1DE
100
AcDbEntity
  8
SEMA2D
100
AcDbLine
 62
7
  6
_SOLID
370
9
 10
3.58089303970337
 20
0.55181610584259
 11
3.6119921207428
 21
0.55181610584259
  0
LINE
  5
1DF
100
AcDbEntity
  8
SEMA2D
100
AcDbLine
 62
7
  6
_SOLID
370
9
 10
3.60275173187256
 20
0.565595507621765
 11
3.60958075523376
 21
0.553767323493958
  0
LINE
  5
1E0
100
AcDbEntity
  8
SEMA2D
100
AcDbLine
 62
7
  6
_SOLID
370
9
 10
3.57849383354187
 20
0.562988936901093
 11
3.57700657844543
 21
0.564761400222778
  0
LINE
  5
1E1
100
AcDbEntity
  8
SEMA2D
100
AcDbLine
 62
7
  6
_SOLID
370
9
 10
3.60726642608643
 20
0.562988936901093
 11
3.61108565330505
 21
0.55637389421463
  0
LINE
  5
1E2
100
AcDbEntity
  8
SEMA2D
100
AcDbLine
 62
7
  6
_SOLID
370
9
 10
3.47415781021118
 20
0.55181610584259
 11
3.50478410720825
 21
0.55181610584259
  0
LINE
  5
1E3
100
AcDbEntity
  8
SEMA2D
100
AcDbLine
 62
7
  6
_SOLID
370
9
 10
3.56482911109924
 20
0.553960084915161
 11
3.5658266544342
 21
0.554135918617249
  0
LINE
  5
1E4
100
AcDbEntity
  8
SEMA2D
100
AcDbLine
 62
7
  6
_SOLID
370
9
 10
3.56246590614319
 20
0.562988936901093
 11
3.49544310569763
 21
0.562988936901093
  0
LINE
  5
1E5
100
AcDbEntity
  8
SEMA2D
100
AcDbLine
 62
7
  6
_SOLID
370
9
 10
3.59070658683777
 20
0.562988936901093
 11
3.57849383354187
 21
0.562988936901093
  0
LINE
  5
1E6
100
AcDbEntity
  8
SEMA2D
100
AcDbLine
 62
7
  6
_SOLID
370
9
 10
3.47888326644897
 20
0.562988936901093
 11
3.43877100944519
 21
0.562988936901093
  0
LINE
  5
1E7
100
AcDbEntity
  8
SEMA2D
100
AcDbLine
 62
7
  6
_SOLID
370
9
 10
3.44064331054687
 20
0.564761400222778
 11
3.47137236595154
 21
0.564761400222778
  0
LINE
  5
1E8
100
AcDbEntity
  8
SEMA2D
100
AcDbLine
 62
7
  6
_SOLID
370
9
 10
3.67025136947632
 20
0.564254999160767
 11
3.66497993469238
 21
0.564254999160767
  0
LINE
  5
1E9
100
AcDbEntity
  8
SEMA2D
100
AcDbLine
 62
7
  6
_SOLID
370
9
 10
3.66958737373352
 20
0.562988936901093
 11
3.60726642608643
 21
0.562988936901093
  0
LINE
  5
1EA
100
AcDbEntity
  8
SEMA2D
100
AcDbLine
 62
7
  6
_SOLID
370
9
 10
3.491623878479
 20
0.55637389421463
 11
3.56363224983215
 21
0.55637389421463
  0
LINE
  5
1EB
100
AcDbEntity
  8
SEMA2D
100
AcDbLine
 62
7
  6
_SOLID
370
9
 10
3.43178343772888
 20
0.55637389421463
 11
3.47506403923035
 21
0.55637389421463
  0
LINE
  5
1EC
100
AcDbEntity
  8
SEMA2D
100
AcDbLine
 62
7
  6
_SOLID
370
9
 10
3.5773274898529
 20
0.55637389421463
 11
3.5945258140564
 21
0.55637389421463
  0
LINE
  5
1ED
100
AcDbEntity
  8
SEMA2D
100
AcDbLine
 62
7
  6
_SOLID
370
9
 10
3.57613062858582
 20
0.553960084915161
 11
3.57513308525085
 21
0.554135918617249
  0
LINE
  5
1EE
100
AcDbEntity
  8
SEMA2D
100
AcDbLine
 62
7
  6
_SOLID
370
9
 10
3.61108565330505
 20
0.55637389421463
 11
3.66958737373352
 21
0.55637389421463
  0
LINE
  5
1EF
100
AcDbEntity
  8
SEMA2D
100
AcDbLine
 62
7
  6
_SOLID
370
9
 10
3.48783016204834
 20
0.515266418457031
 11
3.42952990531921
 21
0.515266418457031
  0
LINE
  5
1F0
100
AcDbEntity
  8
SEMA2D
100
AcDbLine
 62
7
  6
_SOLID
370
9
 10
3.58090233802795
 20
0.515266418457031
 11
3.50524735450745
 21
0.515266418457031
  0
LINE
  5
1F1
100
AcDbEntity
  8
SEMA2D
100
AcDbLine
 62
7
  6
_SOLID
370
9
 10
3.66978669166565
 20
0.51564621925354
 11
3.66403484344482
 21
0.51564621925354
  0
LINE
  5
1F2
100
AcDbEntity
  8
SEMA2D
100
AcDbLine
 62
7
  6
_SOLID
370
9
 10
3.4294228553772
 20
0.516026079654694
 11
3.47035956382751
 21
0.516026079654694
  0
LINE
  5
1F3
100
AcDbEntity
  8
SEMA2D
100
AcDbLine
 62
7
  6
_SOLID
370
9
 10
3.5770947933197
 20
0.516026079654694
 11
3.50858235359192
 21
0.516026079654694
  0
LINE
  5
1F4
100
AcDbEntity
  8
SEMA2D
100
AcDbLine
 62
7
  6
_SOLID
370
9
 10
3.66958737373352
 20
0.515266418457031
 11
3.59831953048706
 21
0.515266418457031
  0
LINE
  5
1F5
100
AcDbEntity
  8
SEMA2D
100
AcDbLine
 62
7
  6
_SOLID
370
9
 10
3.66958737373352
 20
0.55637389421463
 11
3.66958737373352
 21
0.562988936901093
  0
LINE
  5
1F6
100
AcDbEntity
  8
SEMA2D
100
AcDbLine
 62
7
  6
_SOLID
370
9
 10
3.66958737373352
 20
0.515266418457031
 11
3.66958737373352
 21
0.19963575899601
  0
LINE
  5
1F7
100
AcDbEntity
  8
SEMA2D
100
AcDbLine
 62
7
  6
_SOLID
370
9
 10
3.66978669166565
 20
0.555994093418121
 11
3.66978669166565
 21
0.51564621925354
  0
LINE
  5
1F8
100
AcDbEntity
  8
SEMA2D
100
AcDbLine
 62
7
  6
_SOLID
370
9
 10
3.670649766922
 20
0.187461420893669
 11
3.670649766922
 21
0.583306431770325
  0
LINE
  5
1F9
100
AcDbEntity
  8
SEMA2D
100
AcDbLine
 62
7
  6
_SOLID
370
9
 10
3.67025136947632
 20
0.582907974720001
 11
3.67025136947632
 21
0.564254999160767
  0
LINE
  5
1FA
100
AcDbEntity
  8
SEMA2D
100
AcDbLine
 62
7
  6
_SOLID
370
9
 10
3.66403484344482
 20
0.51564621925354
 11
3.66157960891724
 21
0.516026079654694
  0
LINE
  5
1FB
100
AcDbEntity
  8
SEMA2D
100
AcDbLine
 62
7
  6
_SOLID
370
9
 10
3.66403484344482
 20
0.555994093418121
 11
3.66157960891724
 21
0.555614292621613
  0
LINE
  5
1FC
100
AcDbEntity
  8
SEMA2D
100
AcDbLine
 62
7
  6
_SOLID
370
9
 10
3.56363224983215
 20
0.55637389421463
 11
3.564537525177
 21
0.555614292621613
  0
LINE
  5
1FD
100
AcDbEntity
  8
SEMA2D
100
AcDbLine
 62
7
  6
_SOLID
370
9
 10
3.58089303970337
 20
0.55181610584259
 11
3.5770947933197
 21
0.555614292621613
  0
LINE
  5
1FE
100
AcDbEntity
  8
SEMA2D
100
AcDbLine
 62
7
  6
_SOLID
370
9
 10
3.61579012870789
 20
0.516026079654694
 11
3.6119921207428
 21
0.519824266433716
  0
LINE
  5
1FF
100
AcDbEntity
  8
SEMA2D
100
AcDbLine
 62
7
  6
_SOLID
370
9
 10
3.59221148490906
 20
0.565595507621765
 11
3.59904050827026
 21
0.553767323493958
  0
LINE
  5
200
100
AcDbEntity
  8
SEMA2D
100
AcDbLine
 62
7
  6
_SOLID
370
9
 10
3.47415781021118
 20
0.519824266433716
 11
3.50478410720825
 21
0.519824266433716
  0
LINE
  5
201
100
AcDbEntity
  8
SEMA2D
100
AcDbLine
 62
7
  6
_SOLID
370
9
 10
3.61579012870789
 20
0.516026079654694
 11
3.66157960891724
 21
0.516026079654694
  0
LINE
  5
202
100
AcDbEntity
  8
SEMA2D
100
AcDbLine
 62
7
  6
_SOLID
370
9
 10
3.58089303970337
 20
0.519824266433716
 11
3.6119921207428
 21
0.519824266433716
  0
LINE
  5
203
100
AcDbEntity
  8
SEMA2D
100
AcDbLine
 62
7
  6
_SOLID
370
9
 10
3.59070658683777
 20
0.562988936901093
 11
3.5945258140564
 21
0.55637389421463
  0
LINE
  5
204
100
AcDbEntity
  8
SEMA2D
100
AcDbLine
 62
7
  6
_SOLID
370
9
 10
3.59831953048706
 20
0.515266418457031
 11
3.59578514099121
 21
0.518885850906372
  0
LINE
  5
205
100
AcDbEntity
  8
SEMA2D
100
AcDbLine
 62
7
  6
_SOLID
370
9
 10
3.43377876281738
 20
0.599995136260986
 11
3.43283653259277
 21
0.600046813488007
  0
LINE
  5
206
100
AcDbEntity
  8
SEMA2D
100
AcDbLine
 62
7
  6
_SOLID
370
9
 10
3.43285775184631
 20
0.604096412658691
 11
3.64324498176575
 21
0.604096412658691
  0
LINE
  5
207
100
AcDbEntity
  8
SEMA2D
100
AcDbLine
 62
7
  6
_SOLID
370
9
 10
3.66497993469238
 20
0.582907974720001
 11
3.66308999061584
 21
0.583173632621765
  0
LINE
  5
208
100
AcDbEntity
  8
SEMA2D
100
AcDbLine
 62
7
  6
_SOLID
370
9
 10
3.67025136947632
 20
0.582907974720001
 11
3.66497993469238
 21
0.582907974720001
  0
LINE
  5
209
100
AcDbEntity
  8
SEMA2D
100
AcDbLine
 62
7
  6
_SOLID
370
9
 10
3.66653943061829
 20
0.175176426768303
 11
3.670649766922
 21
0.187461420893669
  0
LINE
  5
20A
100
AcDbEntity
  8
SEMA2D
100
AcDbLine
 62
7
  6
_SOLID
370
9
 10
3.66308999061584
 20
0.583173632621765
 11
3.64702486991882
 21
0.583173632621765
  0
LINE
  5
20B
100
AcDbEntity
  8
SEMA2D
100
AcDbLine
 62
7
  6
_SOLID
370
9
 10
3.64702486991882
 20
0.583306431770325
 11
3.670649766922
 21
0.583306431770325
  0
LINE
  5
20C
100
AcDbEntity
  8
SEMA2D
100
AcDbLine
 62
7
  6
_SOLID
370
9
 10
3.61300492286682
 20
0.566533863544464
 11
3.61477732658386
 21
0.564761400222778
  0
LINE
  5
20D
100
AcDbEntity
  8
SEMA2D
100
AcDbLine
 62
7
  6
_SOLID
370
9
 10
3.61477732658386
 20
0.564761400222778
 11
3.66308999061584
 21
0.564761400222778
  0
LINE
  5
20E
100
AcDbEntity
  8
SEMA2D
100
AcDbLine
 62
7
  6
_SOLID
370
9
 10
3.56395316123962
 20
0.564761400222778
 11
3.57700657844543
 21
0.564761400222778
  0
LINE
  5
20F
100
AcDbEntity
  8
SEMA2D
100
AcDbLine
 62
7
  6
_SOLID
370
9
 10
3.47314476966858
 20
0.566533863544464
 11
3.61300492286682
 21
0.566533863544464
  0
LINE
  5
210
100
AcDbEntity
  8
SEMA2D
100
AcDbLine
 62
7
  6
_SOLID
370
9
 10
3.60726642608643
 20
0.562988936901093
 11
3.60275173187256
 21
0.565595507621765
  0
LINE
  5
211
100
AcDbEntity
  8
SEMA2D
100
AcDbLine
 62
7
  6
_SOLID
370
9
 10
3.5945258140564
 20
0.55637389421463
 11
3.59904050827026
 21
0.553767323493958
  0
LINE
  5
212
100
AcDbEntity
  8
SEMA2D
100
AcDbLine
 62
7
  6
_SOLID
370
9
 10
3.66730713844299
 20
0.177471190690994
 11
3.66619324684143
 21
0.175176426768303
  0
LINE
  5
213
100
AcDbEntity
  8
SEMA2D
100
AcDbLine
 62
7
  6
_SOLID
370
9
 10
3.66958737373352
 20
0.55637389421463
 11
3.66978669166565
 21
0.555994093418121
  0
LINE
  5
214
100
AcDbEntity
  8
SEMA2D
100
AcDbLine
 62
7
  6
_SOLID
370
9
 10
3.67054557800293
 20
0.187149569392204
 11
3.66956353187561
 21
0.185475170612335
  0
LINE
  5
215
100
AcDbEntity
  8
SEMA2D
100
AcDbLine
 62
7
  6
_SOLID
370
9
 10
3.43434166908264
 20
0.60303395986557
 11
3.64218235015869
 21
0.60303395986557
  0
LINE
  5
216
100
AcDbEntity
  8
SEMA2D
100
AcDbLine
 62
7
  6
_SOLID
370
9
 10
3.44048070907593
 20
0.594173908233643
 11
3.64218235015869
 21
0.594173908233643
  0
LINE
  5
217
100
AcDbEntity
  8
SEMA2D
100
AcDbLine
 62
7
  6
_SOLID
370
9
 10
3.64218235015869
 20
0.594173908233643
 11
3.64311194419861
 21
0.592524647712707
  0
LINE
  5
218
100
AcDbEntity
  8
SEMA2D
100
AcDbLine
 62
7
  6
_SOLID
370
9
 10
3.44216561317444
 20
0.592524647712707
 11
3.47137236595154
 21
0.592524647712707
  0
LINE
  5
219
100
AcDbEntity
  8
SEMA2D
100
AcDbLine
 62
7
  6
_SOLID
370
9
 10
3.61300492286682
 20
0.590875327587128
 11
3.47314476966858
 21
0.590875327587128
  0
LINE
  5
21A
100
AcDbEntity
  8
SEMA2D
100
AcDbLine
 62
7
  6
_SOLID
370
9
 10
3.61477732658386
 20
0.592524647712707
 11
3.64311194419861
 21
0.592524647712707
  0
LINE
  5
21B
100
AcDbEntity
  8
SEMA2D
100
AcDbLine
 62
7
  6
_SOLID
370
9
 10
3.66497993469238
 20
0.564254999160767
 11
3.66308999061584
 21
0.564761400222778
  0
LINE
  5
21C
100
AcDbEntity
  8
SEMA2D
100
AcDbLine
 62
7
  6
_SOLID
370
9
 10
3.42868518829346
 20
0.585290014743805
 11
3.42774295806885
 21
0.585341691970825
  0
LINE
  5
21D
100
AcDbEntity
  8
SEMA2D
100
AcDbLine
 62
7
  6
_SOLID
370
9
 10
3.58607149124146
 20
0.518885850906372
 11
3.57666254043579
 21
0.493035227060318
  0
LINE
  5
21E
100
AcDbEntity
  8
SEMA2D
100
AcDbLine
 62
7
  6
_SOLID
370
9
 10
3.58090233802795
 20
0.515266418457031
 11
3.57608699798584
 21
0.502036452293396
  0
LINE
  5
21F
100
AcDbEntity
  8
SEMA2D
100
AcDbLine
 62
7
  6
_SOLID
370
9
 10
3.61108565330505
 20
0.55637389421463
 11
3.60958075523376
 21
0.553767323493958
  0
LINE
  5
220
100
AcDbEntity
  8
SEMA2D
100
AcDbLine
 62
7
  6
_SOLID
370
9
 10
3.59070658683777
 20
0.562988936901093
 11
3.59221148490906
 21
0.565595507621765
  0
LINE
  5
221
100
AcDbEntity
  8
SEMA2D
100
AcDbLine
 62
7
  6
_SOLID
370
9
 10
3.50478410720825
 20
0.519824266433716
 11
3.50478410720825
 21
0.55181610584259
  0
LINE
  5
222
100
AcDbEntity
  8
SEMA2D
100
AcDbLine
 62
7
  6
_SOLID
370
9
 10
3.67025136947632
 20
0.582907974720001
 11
3.670649766922
 21
0.583306431770325
  0
LINE
  5
223
100
AcDbEntity
  8
SEMA2D
100
AcDbLine
 62
7
  6
_SOLID
370
9
 10
3.50858235359192
 20
0.555614292621613
 11
3.50858235359192
 21
0.516026079654694
  0
LINE
  5
224
100
AcDbEntity
  8
SEMA2D
100
AcDbLine
 62
7
  6
_SOLID
370
9
 10
3.43434166908264
 20
0.60303395986557
 11
3.43400359153748
 21
0.604096412658691
  0
LINE
  5
225
100
AcDbEntity
  8
SEMA2D
100
AcDbLine
 62
7
  6
_SOLID
370
9
 10
3.57642221450806
 20
0.555614292621613
 11
3.57613062858582
 21
0.553960084915161
  0
LINE
  5
226
100
AcDbEntity
  8
SEMA2D
100
AcDbLine
 62
7
  6
_SOLID
370
9
 10
3.57513308525085
 20
0.554135918617249
 11
3.57700657844543
 21
0.564761400222778
  0
LINE
  5
227
100
AcDbEntity
  8
SEMA2D
100
AcDbLine
 62
7
  6
_SOLID
370
9
 10
3.48783016204834
 20
0.515266418457031
 11
3.49287819862366
 21
0.501397013664246
  0
LINE
  5
228
100
AcDbEntity
  8
SEMA2D
100
AcDbLine
 62
7
  6
_SOLID
370
9
 10
3.49036455154419
 20
0.518885850906372
 11
3.50090956687927
 21
0.489913254976273
  0
LINE
  5
229
100
AcDbEntity
  8
SEMA2D
100
AcDbLine
 62
7
  6
_SOLID
370
9
 10
3.56246590614319
 20
0.562988936901093
 11
3.56395316123962
 21
0.564761400222778
  0
LINE
  5
22A
100
AcDbEntity
  8
SEMA2D
100
AcDbLine
 62
7
  6
_SOLID
370
9
 10
3.51006269454956
 20
0.502036452293396
 11
3.50966429710388
 21
0.50146746635437
  0
LINE
  5
22B
100
AcDbEntity
  8
SEMA2D
100
AcDbLine
 62
7
  6
_SOLID
370
9
 10
3.61300492286682
 20
0.590875327587128
 11
3.61477732658386
 21
0.592524647712707
  0
LINE
  5
22C
100
AcDbEntity
  8
SEMA2D
100
AcDbLine
 62
7
  6
_SOLID
370
9
 10
3.47035956382751
 20
0.516026079654694
 11
3.47035956382751
 21
0.555614292621613
  0
LINE
  5
22D
100
AcDbEntity
  8
SEMA2D
100
AcDbLine
 62
7
  6
_SOLID
370
9
 10
3.42952990531921
 20
0.515266418457031
 11
3.4294228553772
 21
0.516026079654694
  0
LINE
  5
22E
100
AcDbEntity
  8
SEMA2D
100
AcDbLine
 62
7
  6
_SOLID
370
9
 10
3.44048070907593
 20
0.594173908233643
 11
3.43877100944519
 21
0.562988936901093
  0
LINE
  5
22F
100
AcDbEntity
  8
SEMA2D
100
AcDbLine
 62
7
  6
_SOLID
370
9
 10
3.43178343772888
 20
0.55637389421463
 11
3.43434166908264
 21
0.60303395986557
  0
LINE
  5
230
100
AcDbEntity
  8
SEMA2D
100
AcDbLine
 62
7
  6
_SOLID
370
9
 10
3.44064331054687
 20
0.564761400222778
 11
3.44216561317444
 21
0.592524647712707
  0
LINE
  5
231
100
AcDbEntity
  8
SEMA2D
100
AcDbLine
 62
7
  6
_SOLID
370
9
 10
3.5773274898529
 20
0.55637389421463
 11
3.57642221450806
 21
0.555614292621613
  0
LINE
  5
232
100
AcDbEntity
  8
SEMA2D
100
AcDbLine
 62
7
  6
_SOLID
370
9
 10
3.48783016204834
 20
0.515266418457031
 11
3.49036455154419
 21
0.518885850906372
  0
LINE
  5
233
100
AcDbEntity
  8
SEMA2D
100
AcDbLine
 62
7
  6
_SOLID
370
9
 10
3.6119921207428
 20
0.55181610584259
 11
3.61579012870789
 21
0.555614292621613
  0
LINE
  5
234
100
AcDbEntity
  8
SEMA2D
100
AcDbLine
 62
7
  6
_SOLID
370
9
 10
3.47415781021118
 20
0.519824266433716
 11
3.47415781021118
 21
0.55181610584259
  0
LINE
  5
235
100
AcDbEntity
  8
SEMA2D
100
AcDbLine
 62
7
  6
_SOLID
370
9
 10
3.58089303970337
 20
0.519824266433716
 11
3.5770947933197
 21
0.516026079654694
  0
LINE
  5
236
100
AcDbEntity
  8
SEMA2D
100
AcDbLine
 62
7
  6
_SOLID
370
9
 10
3.47314476966858
 20
0.566533863544464
 11
3.47314476966858
 21
0.590875327587128
  0
LINE
  5
237
100
AcDbEntity
  8
SEMA2D
100
AcDbLine
 62
7
  6
_SOLID
370
9
 10
3.64218235015869
 20
0.60303395986557
 11
3.64324498176575
 21
0.604096412658691
  0
LINE
  5
238
100
AcDbEntity
  8
SEMA2D
100
AcDbLine
 62
7
  6
_SOLID
370
9
 10
3.47137236595154
 20
0.564761400222778
 11
3.47137236595154
 21
0.592524647712707
  0
LINE
  5
239
100
AcDbEntity
  8
SEMA2D
100
AcDbLine
 62
7
  6
_SOLID
370
9
 10
3.58090233802795
 20
0.515266418457031
 11
3.58607149124146
 21
0.518885850906372
  0
LINE
  5
23A
100
AcDbEntity
  8
SEMA2D
100
AcDbLine
 62
7
  6
_SOLID
370
9
 10
3.4721999168396
 20
0.475576430559158
 11
3.4721999168396
 21
0.19963575899601
  0
LINE
  5
23B
100
AcDbEntity
  8
SEMA2D
100
AcDbLine
 62
7
  6
_SOLID
370
9
 10
3.64218235015869
 20
0.60303395986557
 11
3.64218235015869
 21
0.594173908233643
  0
LINE
  5
23C
100
AcDbEntity
  8
SEMA2D
100
AcDbLine
 62
7
  6
_SOLID
370
9
 10
3.57608699798584
 20
0.502036452293396
 11
3.57648539543152
 21
0.50146746635437
  0
LINE
  5
23D
100
AcDbEntity
  8
SEMA2D
100
AcDbLine
 62
7
  6
_SOLID
370
9
 10
3.66601395606995
 20
0.17610065639019
 11
3.66619324684143
 21
0.175176426768303
  0
LINE
  5
23E
100
AcDbEntity
  8
SEMA2D
100
AcDbLine
 62
7
  6
_SOLID
370
9
 10
3.50524735450745
 20
0.515266418457031
 11
3.50007843971252
 21
0.518885850906372
  0
LINE
  5
23F
100
AcDbEntity
  8
SEMA2D
100
AcDbLine
 62
7
  6
_SOLID
370
9
 10
3.61579012870789
 20
0.516026079654694
 11
3.61579012870789
 21
0.555614292621613
  0
LINE
  5
240
100
AcDbEntity
  8
SEMA2D
100
AcDbLine
 62
7
  6
_SOLID
370
9
 10
3.44216561317444
 20
0.592524647712707
 11
3.44048070907593
 21
0.594173908233643
  0
LINE
  5
241
100
AcDbEntity
  8
SEMA2D
100
AcDbLine
 62
7
  6
_SOLID
370
9
 10
3.47035956382751
 20
0.555614292621613
 11
3.47415781021118
 21
0.55181610584259
  0
LINE
  5
242
100
AcDbEntity
  8
SEMA2D
100
AcDbLine
 62
7
  6
_SOLID
370
9
 10
3.50478410720825
 20
0.519824266433716
 11
3.50858235359192
 21
0.516026079654694
  0
LINE
  5
243
100
AcDbEntity
  8
SEMA2D
100
AcDbLine
 62
7
  6
_SOLID
370
9
 10
3.66157960891724
 20
0.516026079654694
 11
3.66157960891724
 21
0.555614292621613
  0
LINE
  5
244
100
AcDbEntity
  8
SEMA2D
100
AcDbLine
 62
7
  6
_SOLID
370
9
 10
3.47314476966858
 20
0.590875327587128
 11
3.47137236595154
 21
0.592524647712707
  0
LINE
  5
245
100
AcDbEntity
  8
SEMA2D
100
AcDbLine
 62
7
  6
_SOLID
370
9
 10
3.66308999061584
 20
0.564761400222778
 11
3.66308999061584
 21
0.583173632621765
  0
LINE
  5
246
100
AcDbEntity
  8
SEMA2D
100
AcDbLine
 62
7
  6
_SOLID
370
9
 10
3.66497993469238
 20
0.582907974720001
 11
3.66497993469238
 21
0.564254999160767
  0
LINE
  5
247
100
AcDbEntity
  8
SEMA2D
100
AcDbLine
 62
7
  6
_SOLID
370
9
 10
3.66403484344482
 20
0.555994093418121
 11
3.66403484344482
 21
0.51564621925354
  0
LINE
  5
248
100
AcDbEntity
  8
SEMA2D
100
AcDbLine
 62
7
  6
_SOLID
370
9
 10
3.64324498176575
 20
0.604096412658691
 11
3.64324498176575
 21
0.58708643913269
  0
LINE
  5
249
100
AcDbEntity
  8
SEMA2D
100
AcDbLine
 62
7
  6
_SOLID
370
9
 10
3.64311194419861
 20
0.592524647712707
 11
3.64311194419861
 21
0.58708643913269
  0
LINE
  5
24A
100
AcDbEntity
  8
SEMA2D
100
AcDbLine
 62
7
  6
_SOLID
370
9
 10
3.57608699798584
 20
0.502036452293396
 11
3.51006269454956
 21
0.502036452293396
  0
LINE
  5
24B
100
AcDbEntity
  8
SEMA2D
100
AcDbLine
 62
7
  6
_SOLID
370
9
 10
3.57648539543152
 20
0.50146746635437
 11
3.50966429710388
 21
0.50146746635437
  0
LINE
  5
24C
100
AcDbEntity
  8
SEMA2D
100
AcDbLine
 62
7
  6
_SOLID
370
9
 10
3.5770947933197
 20
0.555614292621613
 11
3.5770947933197
 21
0.516026079654694
  0
LINE
  5
24D
100
AcDbEntity
  8
SEMA2D
100
AcDbLine
 62
7
  6
_SOLID
370
9
 10
3.47506403923035
 20
0.55637389421463
 11
3.47656893730164
 21
0.553767323493958
  0
LINE
  5
24E
100
AcDbEntity
  8
SEMA2D
100
AcDbLine
 62
7
  6
_SOLID
370
9
 10
3.58089303970337
 20
0.519824266433716
 11
3.58089303970337
 21
0.55181610584259
  0
LINE
  5
24F
100
AcDbEntity
  8
SEMA2D
100
AcDbLine
 62
7
  6
_SOLID
370
9
 10
3.50524735450745
 20
0.515266418457031
 11
3.51006269454956
 21
0.502036452293396
  0
LINE
  5
250
100
AcDbEntity
  8
SEMA2D
100
AcDbLine
 62
7
  6
_SOLID
370
9
 10
3.59578514099121
 20
0.518885850906372
 11
3.58524012565613
 21
0.489913254976273
  0
LINE
  5
251
100
AcDbEntity
  8
SEMA2D
100
AcDbLine
 62
7
  6
_SOLID
370
9
 10
3.5773274898529
 20
0.55637389421463
 11
3.57849383354187
 21
0.562988936901093
  0
LINE
  5
252
100
AcDbEntity
  8
SEMA2D
100
AcDbLine
 62
7
  6
_SOLID
370
9
 10
3.59831953048706
 20
0.515266418457031
 11
3.59327149391174
 21
0.501397013664246
  0
LINE
  5
253
100
AcDbEntity
  8
SEMA2D
100
AcDbLine
 62
7
  6
_SOLID
370
9
 10
3.50007843971252
 20
0.518885850906372
 11
3.50948715209961
 21
0.493035227060318
  0
LINE
  5
254
100
AcDbEntity
  8
SEMA2D
100
AcDbLine
 62
7
  6
_SOLID
370
9
 10
3.4096953868866
 20
0.17610065639019
 11
3.40909099578857
 21
0.175176426768303
  0
LINE
  5
255
100
AcDbEntity
  8
SEMA2D
100
AcDbLine
 62
7
  6
_SOLID
370
9
 10
3.61300492286682
 20
0.566533863544464
 11
3.61300492286682
 21
0.590875327587128
  0
LINE
  5
256
100
AcDbEntity
  8
SEMA2D
100
AcDbLine
 62
7
  6
_SOLID
370
9
 10
3.6119921207428
 20
0.519824266433716
 11
3.6119921207428
 21
0.55181610584259
  0
LINE
  5
257
100
AcDbEntity
  8
SEMA2D
100
AcDbLine
 62
7
  6
_SOLID
370
9
 10
3.61477732658386
 20
0.564761400222778
 11
3.61477732658386
 21
0.592524647712707
  0
LINE
  5
258
100
AcDbEntity
  8
SEMA2D
100
AcDbLine
 62
7
  6
_SOLID
370
9
 10
3.6139497756958
 20
0.475576430559158
 11
3.6139497756958
 21
0.19963575899601
  0
LINE
  5
259
100
AcDbEntity
  8
SEMA2D
100
AcDbLine
 62
7
  6
_SOLID
370
9
 10
3.56395316123962
 20
0.564761400222778
 11
3.5658266544342
 21
0.554135918617249
  0
LINE
  5
25A
100
AcDbEntity
  8
SEMA2D
100
AcDbLine
 62
7
  6
_SOLID
370
9
 10
3.49544310569763
 20
0.562988936901093
 11
3.49393820762634
 21
0.565595507621765
  0
LINE
  5
25B
100
AcDbEntity
  8
SEMA2D
100
AcDbLine
 62
7
  6
_SOLID
370
9
 10
3.66958737373352
 20
0.562988936901093
 11
3.67025136947632
 21
0.564254999160767
  0
LINE
  5
25C
100
AcDbEntity
  8
SEMA2D
100
AcDbLine
 62
7
  6
_SOLID
370
9
 10
3.66958737373352
 20
0.515266418457031
 11
3.66978669166565
 21
0.51564621925354
  0
LINE
  5
25D
100
AcDbEntity
  8
SEMA2D
100
AcDbLine
 62
7
  6
_SOLID
370
9
 10
3.564537525177
 20
0.555614292621613
 11
3.56482911109924
 21
0.553960084915161
  0
LINE
  5
25E
100
AcDbEntity
  8
SEMA2D
100
AcDbLine
 62
7
  6
_SOLID
370
9
 10
3.56246590614319
 20
0.562988936901093
 11
3.56363224983215
 21
0.55637389421463
  0
LINE
  5
25F
100
AcDbEntity
  8
SEMA2D
100
AcDbLine
 62
7
  6
_SOLID
370
9
 10
3.54118490219116
 20
0.236794769763947
 11
3.54118490219116
 21
0.233176991343498
  0
ENDSEC
  0
SECTION
  2
OBJECTS
  0
DICTIONARY
  5
 13
330
0
100
AcDbDictionary
281
     1
  3
ACAD_GROUP
350
 14
 3
ACAD_MLINESTYLE
350
 16
  3
ACAD_PLOTSETTINGS
350
 17
  3
ACAD_PLOTSTYLENAME
350
 18
  0
DICTIONARY
  5
 14
330
 13
100
AcDbDictionary
281
     1
  0
DICTIONARY
  5
 16
330
 13
100
AcDbDictionary
281
     1
  0
DICTIONARY
  5
 17
102
{ACAD_REACTORS
330
 13
102
}
330
 13
100
AcDbDictionary
281
     1
  0
ACDBDICTIONARYWDFLT
  5
 18
102
{ACAD_REACTORS
330
 13
102
}
330
 13
100
AcDbDictionary
281
     1
  3
Normal
350
 19
100
AcDbDictionaryWithDefault
340
 19
  0
ACDBPLACEHOLDER
  5
 19
102
{ACAD_REACTORS
330
 18
102
}
330
 18
  0
ENDSEC
  0
EOF
